Guitar Tabs, Chords and Lyrics


Gagawin Ko Lang Baclaran  Siakol

e|----------------------------------------------------|


B|---------------------------------6-5-3-1------------|


G|----3-2-------3-2--------3-2------------------------|

D|-1/3---3--1/3-----3--1/3-----3----------------------|
A|----------------------------------------------------|
E|----------------------------------------------------|
e|----------------------------------------------------|
B|-------------------------------6-5-3-1--------------|
G|-----3-2------3-2-------3-2-------------------------|
D|-1/3-----3-1/3----3--1/3----3----------3------------|
A|----------------------------------------------------|
E|----------------------------------------------------|
[F]Sa puso k[Am]o'y tumama, ang i[Bb]sang munting paghanga   [C]
Na[F] sa tuwing ika'[Am]y makikita, parang[Bb] baliw tuwang-tuwa        [C]
[F]At 'di ko [Am]alintana, kahit pa[Bb] anong pagsubok      [C]
M[F]akamit ko lang ang t[Am]ala, tatawagin kah[Bb]it ilang bundo[C]k
Koro:

[Dm]At Kahit na malayo man at lubak lubak man[Am] ang daan
[Dm]Palagi kitang pupuntahan gagawin ko lang B[Am]aklaran (yan)
D[Dm]'yan mo 'ko[Am] maasahan, d'yan m[Bb]o 'ko mahahangan        [C]
[Dm]D'yan mo mararanasan ang tunay na[Am] pagmamahalan
N[Dm]a 'di mo malilimutan sa iyong [Am]buong buhay
At ka[Dm]hit pa sa kam[Am]atayan ay nakahanda [Bb]'kong tumulay  [C]

Solo:
e|-------------------------------------6/8-6-5----------------------------|
B|-5h6p5--(6x)-5/6-5-3----5h6p5---(6x)---------6--5h6p5--(6x)-5/6-5-3-----|
G|-------7-------------5--------7-----------------------7-------------5---|
D|------------------------------------------------------------------------|
A|------------------------------------------------------------------------|
E|------------------------------------------------------------------------|
e|-------------------------------------------------------------|
B|-5h6p5---(4x)--5/6-5-3-1-------------------------------------|
G|-------7------------------5-3-2-3----------------------------|
D|----------------------------------3--------------------------|
A|-------------------------------------------------------------|
E|-------------------------------------------------------------|


2nd stanza:
(do same chrods)

Gagawin ko lang malapit 'di iisipin ang agwat
Gagawin ko ang lahat para malaman mong ako'y tapat
Pagkat wala na rin akong mahihiling sa'yo
Sa kagandahan ng anyo s'ya ring ganda ng kalooban mo

(repeat chorus)

outro:

e|----------------------------------------------------|
B|---------------------------------6-5-3-1------------|
G|----3-2-------3-2--------3-2------------------------|
D|-1/3---3--1/3-----3--1/3-----3----------------------|
A|----------------------------------------------------|
E|----------------------------------------------------|
e|------------------------------------------1---------|
B|-------------------------------6-5-3-1----1---------|
G|-----3-2------3-2-------3-2---------------1-2-------|
D|-1/3-----3-1/3----3--1/3----3-------------1---3-----|
A|------------------------------------------1---3-----|
E|------------------------------------------1---------|


yan lang po rate naman alay ko yan lahat sa inyo
kumusta kayo!!!


Important: The song above is NOT stored on the Chordie server. The original song is hosted at www.guitaretab.com. Chordie works as a search engine and provides on-the-fly formatting. Chordie does not index songs against artists'/composers' will. To remove this song please click here.

Text color:
Chord color:
Chord grids: 
Font size:    
Page size: 

Am Bb C Dm F
variations - click chord images

Login - add to songbook

Transpose chords

Tuning

Rating click stars to rate

Layout
Accuracy

SHARE PAGE  




You need to log in to post comments