Sa Kabilang Mundo

Siakol

 DG
e|----------------------------------------------|--------------------|
B|----------------------------------------------| -------------------|
G|-------------------------------------------------------------------| -    - repeat
D|----------------------------------------------|   -----------------|      4x
A|----------------------------------------------| -------------------|
D|-5/-12-12-12-12-12-12-12-12\-5-5-5-5-5-5-5-5/-|--------------------|


Verse:
 DG
e|----------------------------------------------|-------------------|
B|----------------------------------------------| ------------------|
G|-------------------------------7-7---7-7---7----------------------| -   - repeat
D|-------12-12----12-12----12-------------------|  -----------------|      7x
A|----------------------------------------------| ------------------|
D|-5/-12-12-12-12-12-12-12-12\-5-5-5-5-5-5-5-5/-|-------------------|

 DG
e|----------------------------------------------|
B|----------------------------------------------|
G|-------------------------------7-7---7-7-7-7--|
D|-------12-12----12-12----12-------------------|
A|----------------------------------------------|
D|-5/-12-12-12-12-12-12-12-12\-5-5-5-5-5-5-5-5/-|


Pre-Chorus:
 DA
e|-------------------------|-------------------------|
B|-------------------------|-------------------------|
G|-------------------------|-------------------------|
D|-12--x--12-12-12-x-12----|--7--x---7--7--7-x-7-----|
A|-12--x--12-12-12-x-12----|--7--x---7--7--7-x-7-----|
D|-12--x--12-12-12-x-12----|--7--x---7--7--7-x-7-----|

 BmG
e|-------------------------|-------------------------|
B|-------------------------|-------------------------|
G|-------------------------|-------------------------|
D|-9-x-9-9-9-x-9-9-9-x-9-9-|--5--x---5--5--5-x-5-----|
A|-9-x-9-9-9-x-9-9-9-x-9-9-|--5--x---5--5--5-x-5-----|
D|-9-x-9-9-9-x-9-9-9-x-9-9-|--5--x---5--5--5-x-5-----|

 DA
e|-------------------------|-------------------------|
B|-------------------------|-------------------------|
G|-------------------------|-------------------------|
D|-12--x--12-12-12-x-12----|--7--x---7--7--7-x-7-----|
A|-12--x--12-12-12-x-12----|--7--x---7--7--7-x-7-----|
D|-12--x--12-12-12-x-12----|--7--x---7--7--7-x-7-----|

 BmG
e|-------------------------|-------------------------|
B|-------------------------|-------------------------|
G|-------------------------|-------------------------|
D|--9--x---9--9--9-x-9-----|--5--x---5--5--5-x-5--5^-|
A|--9--x---9--9--9-x-9-----|--5--x---5--5--5-x-5-----|
D|--9--x---9--9--9-x-9-----|--5--x---5--5--5-x-5-----|


Chorus:
 DA
e|-------------------------|-------------------------|------|
B|----------------15-------|----------------10-------|------|
G|-------------------------|-------------------------| -----|
D|-------12-------------12-|--------7--------------7-|  ----|
A|-12-12----12-12----12----|--7--7-----7--7-----7----|   ---|
D|-12-12----12-12----12----|--7--7-----7--7-----7----|    --|

Bm G - 2x
e|-------------------------|-------------------------|    --|
B|----------------12-------|-----------------8-------|   ---|
G|-------------------------|-------------------------|  ----|
D|--------9--------------9-|--------5--------------5-| -----|
A|--9--9-----9--9-----9----|--5--5-----5--5-----5----|------|
D|--9--9-----9--9-----9----|--5--5-----5--5-----5----|------|


Adlib: D-A-Bm-G (Strum nyo lang and ang pattern ung chorus alisin lang ung mga pasabit.
sa D alisin nyo na ung 12 at 15.)

(dalawang gitara dito isang lead at isang rythm.)

INTRO: D-G 4x

VERSE 1: D-G 2x

Dito.. dito lang tayo kung saan ang mundo
ay hindi mo na natin kasalo
dito.. dito lang tayo... kung saan ang gabi
ay nababalot pa ng misteryo

Pre-Chorus:
 DABmG
        Sa matahimik lang kita makakasama
 DABmG
        sa nakatagong sandali ng pagkakasala

CHORUS:D-A-Bm-G

At dito lang tayo sa kabilang mundo

mapayapa ligtas at may laya....

(do Intro 2x)

VERSE2: D-G 2x

Dito.. dito lang tayo kung saan ang lamig
sa ating kataway nag tatalo
dito.. dito lang tayo... kung saan ang
lahat ng ka22hanay may milagro

(Pre-Chorus and chorus)

(adlib. do chorus pattern)

BRIDGE: (bass)
 BG
        Gustong gusto ko ng gawin ito 
 BA
        gustong gusto ko ng gawin sau 
 BG
        gustong gusto ko ng gaing ito 
 BA
        gustong gusto mo rin naman ako..

(Pre-Chorus and chorus)

outro:D-A-Bm-G 2x
 EndinD

yun lang... maki-rate na lang mga tol salamat.
sana magustuhan niyo.

emai ko nga pala jhay_aquino719@yahoo.com.ph, jhayaquino@gmail.com


A B Bm D G
variations - click chord images
Transpose chords:
Tuning:
Cool service:
View: Size:
A  A  A
Rating:
Layout:
  • Currently 2.8/5 Stars.
  • 1
  • 2
  • 3
  • 4
  • 5
 
Accuracy:
  • Currently 2.7/5 Stars.
  • 1
  • 2
  • 3
  • 4
  • 5
 
click stars to rate
Chordie recommends:
Learn how to play guitar at JamPlay.com
Songbook:
Login to add this song to your songbook
Support the artist
Preview/buy this song
MSN Music
Why this non-profit ad?

 
login to add comments/video/corrections