Guitar Tabs, Chords and Lyrics


Machete   Sick Of It All



INTRO
e|-----------|
b|-----------|
g|-5-5--8-8\-|
d|-5-5--8-8\-|
a|-3-3--6-6\-|
D|-----------|

             VERSE X2
e|----------|-----------------------------------|
b|----------|-----------------------------------|
g|-55558888-|---------------------------5558888-|
d|-55558888-|-333366663333-5-6--333366665558888-|
a|-33336666-|-333366663333-5-6--333366663336666-|
D|----------|-333366663333-5-6--33336666--------|

 RIT                       1stTIME  2ndTIME 
e|-------------------------|--------|-------|
b|-------------------------|--------|-------|
g|-------------------------|-5-8-5\-|-5-5-5-|
d|555555556666666688888888-|-5-8-5\-|-5-5-5-|
a|555555556666666688888888-|-3-6-3\-|-3-3-3-|
D|555555556666666688888888-|--------|-------|
 
       VERSE X2
e|-----|-----------------------------------|
b|-----|-----------------------------------|
g|-----|---------------------------5558888-|
d|-356-|-333366663333-5-6--333366665558888-|
a|-356-|-333366663333-5-6--333366663336666-|
D|-356-| 333366663333-5-6--33336666--------|

 RIT                        1stTIME 2ndTIME
e|-------------------------|--------|-------|
b|-------------------------|--------|-------|
g|-------------------------|-5-8-5\-|-------|
d|555555556666666688888888-|-5-8-5\-|-------|
a|555555556666666688888888-|-3-6-3\-|--pick-|
D|555555556666666688888888-|--------|-------|

 BRIDGE X3
e|----------------------------------------------------|
b|----------------------------------------------------|
g|----------------------------------------------------|
d|---5555555555555556-555555555555556-5555555-2-2-2-2-|
a|---5555555555555556-555555555555556-5555555-2-2-2-2-|
D|---5555555555555556-555555555555556-5555555-2-2-2-2-|

e|-----------------------------------------------------------------------------|
b|-----------------------------------------------------------------------------|
g|-----------------------------------------------------------------------------|
d|---5555555555555556-555555555555556-5555555-2-2-2-2--1-1-1-1--2-2-2-2-1-1----|
a|---5555555555555556-555555555555556-5555555-2-2-2-2--1-1-1-1--2-2-2-2-1-1-111|
D|---5555555555555556-555555555555556-5555555-2-2-2-2--1-1-1-1--2-2-2-2-1-1-111|
PM                                                                          ...

 OUTRO X2
e|-----------------------------------------|
b|-----------------------------------------|
g|-----------------------------------------|
d|-0-1-0-1-0-1-444-333-0-1-0-1-0-1-444-333-|
a|-0-1-0-1-0-1-444-333-0-1-0-1-0-1-444-333-|
D|-0-1-0-1-0-1-444-333-0-1-0-1-0-1-444-333-|

  X2
e|-------------------------------------|
b|-------------------------------------|
g|-------------------------------------|
d|-0----1-1-0----1-1-0----1-1--444-333-|
a|-0-00-1-1-0-00-1-1-0-00-1-1--444-333-|
D|-0-00-1-1-0-00-1-1-0-00-1-1--444-333-|
PM   ..       ..       ..


e|-----------------------------------|
b|-----------------------------------|
g|-----------------------------------|
d|-0----1-1-0----1-1-0----1-1--444-3-|
a|-0-00-1-1-0-00-1-1-0-00-1-1--444-3-|
D|-0-00-1-1-0-00-1-1-0-00-1-1--444-3-|
PM   ..       ..       ..

By DonD


Important: The song above is NOT stored on the Chordie server. The original song is hosted at www.guitaretab.com. Chordie works as a search engine and provides on-the-fly formatting. Chordie does not index songs against artists/composers will. To remove this song please click here.

This song is displayed as text-only. Transposing and tuning is only available for chordpro-songs.

Login - add to songbook

Rating click stars to rate

Layout
Accuracy

SHARE PAGE  




You need to log in to post comments