Chordie logo


Howards Tale   Sick Puppies



ok i have to post some sick puppies tabs, everyone is off on theirs or they are 
if anyone has corrections please send them to my myspace at www.myspace.com/mrcashhimself...YOU 
HAVE TO FIGURE OUT THE RYTHEM ALL IM DOING IS JUST LAYING IT OUT


Sick Puppies
"Howards Tale"

Drop C Tuning


INTRO:

BASS ONLY


CHORUS:      X2    THEN THIS

----------------------------|
----------------------------|
-10-0--7--9         7--7--5-|
-8--0--5--7         5--5--3-|
-8--0--5--7         5--5--3-|
-8--0--5--7         5--5--3-|


VERSE 2

-----------|
-----------|
--7--------|  THROUGHOUT
--X--------|
--5--------|
-----------|


CHORUS:

CHORUS:      X2    THEN THIS

-------------------------------|
-------------------------------|
-10-0--7--9         7--7--5--9-|
-8--0--5--7         5--5--3--7-|
-8--0--5--7         5--5--3--7-|
-8--0--5--7         5--5--3--7-|


BASS INTERLUDE

BASS ONLY FIRST PART THEN


------------|
------------|
-10-0--7--9-|
-8--0--5--7-|
-8--0--5--7-|
-8--0--5--7-|


BREAKDOWN

---------------------------------|
---------------------------------|
-0-12-15-0-12-15-0-11-12-0-11-12-|
---------------------------------|
---------------------------------|
---------------------------------|

----------------------------------------------------------|
----------------------------------------------------------|
----------------------------------------------------------|
-0-12-15-0-12-15-0-11-12-0-12-0-7-8-0-7-8-0-5-7-0-5-7-0-3-|
-0-12-15-0-12-15-0-11-12-0-12-0-7-8-0-7-8-0-5-7-0-5-7-0-3-|
-0-12-15-0-12-15-0-11-12-0-12-0-7-8-0-7-8-0-5-7-0-5-7-0-3-|

VERSE 3

PALM MUTED OPEN THE WHOLE TIME


THEN REPEAT CHORUS



Important: The song above is NOT stored on the Chordie server. The original song is hosted at www.guitaretab.com. Chordie works as a search engine and provides on-the-fly formatting. Chordie does not index songs against artists/composers will. To remove this song please click here.

This song is displayed as text-only. Transposing and tuning is only available for chordpro-songs.

Login - add to songbook

Rating click stars to rate

Layout
Accuracy

SHARE PAGE  




You need to log in to post comments