Kapote Tha Rthoun

Sidiropoulos

-------------------------------------------------------------------------------

-------------------------------------------------------------------------------
e|---2---2---0---2|
B|---3---3---3---3|
G|---4---4---4---4|
D|---4---4---4---4|
A|---2---2---2---2|
E|---2---2---2---2|
e|---0---0---0---0|
B|---0---0---3---0|
G|---0---0---0---0|
D|---2---2---2---2|
A|---2---2---2---2|
E|---0---0---0---0|
e|---2---2|
B|---2---2|
G|---3---3|
D|---4---4|
A|---4---4|
E|---2---2|

 BmEm
 Kapote tha 'rthoun na sou poun
 AD
pws se pisteuoun s' agapoun
 F#Bm
kai pws se thene

 GD
Exe to nou sou sto paidi
 GF#
kleise thn porta me kleidi
 Bm
psemata lene

Kapote tha 'rthoun gnostikoi
logades kai grammatikoi
gia na se peisoun

Exe to nou sou sto paidi
kleise tin porta me kleidi
tha se poulisoun

Kai otan tha 'rthoun oi kairoi
pou tha 'xei sbhsei to keri
stin kataigida

Yperaspisou to paidi
giati an glitosei to paidi
uparxei elpida...


A Bm D Em F# G
variations - click chord images
Transpose chords:
Tuning:
Cool service:
View: Size:
A  A  A
Rating:
Layout:
  • Currently 2.8/5 Stars.
  • 1
  • 2
  • 3
  • 4
  • 5
 
Accuracy:
  • Currently 3.2/5 Stars.
  • 1
  • 2
  • 3
  • 4
  • 5
 
click stars to rate
Chordie recommends:
Check out JamPlay.com for online video guitar lessons
Songbook:
Login to add this song to your songbook
Support the artist
Preview/buy this song
MSN Music
Why this non-profit ad?

 
login to add comments/video/corrections