eToCache5 = ""; ?> American Classic Acoustic by Silent Drive - guitar chords, guitar tabs and lyrics - chordie

American Classic Acoustic

Silent Drive

-----------------------------------------------------------------------

-----------------------------------------------------------------------
-----------------------------------|
-----------------------------------|
---------------------7-5/7-5-------|
-9-9-9-9-9-9-----7-7-x-x-x-x-5-4-4-|
-7-7-7-7-6-6-9-9-5-5-5-3/5-3-3-2-2-|
-------------7-7-------------------|
-x-------------x-------------3---3-------3-------3-------3---|
-3-----3-----3-3-----3-----3-3-----3-------3-------3-------3-|
-0---0---0-----2---2---2-----0-0-------0-------0-------0-----|
-2---------0---0-0-------0---2-------------------------------|
-3-3-------------------------2-------------------------------|
-----------------------------0-------0-------0-------0-------|
 Cadd9D5Em7
 *play E5 instead of Em7 the third time around

Say it's not the loneliness
This one's to the lies
And this ones for the absentess now in my life
They say that it's not the worst thing

Post-chorus 1:

Riff C: x 2
--------------------|
--------------------|
--------------------|
--------------------|
-7---6-6-5/6-7/10-9-|
--------------------|


Verse 2: Riff A x 2

Two T.E.N.Ss but I'm still confused so I change to elevens
Now I just count these questions asked about why these things would ever happen

Chorus:

 C5D5E5
                                     Say it's not the loneliness
 C5
This one's to the lies
D5 E5 Riff D
And this ones for the absentess now in my life
They say that it's not the worst thing that lives in our minds
 C5D5E5
 But I can't get dressed up anymore.

Riff D:
------------------------------------|
------------------------------------|
-5-5-5-5-7-7-7-7-9-9/11-11/12-12/14-|
-5-5-5-5-7-7-7-7-9-9-x--x--x--x--x--|
-3-3-3-3-5-5-5-5-7-7/9--9-/10-10/12-|
-----------------0-0-0--0--0--0--0--|

 C5D5E5

Solo:

Riff E: x 2 then E5
-----------------------------------------------|
-----------------------------------------------|
-9-x-9-x-9-11-x-11-x-11-12-x-12-x-12-12-11-9-7-|
-x-x-x-x-x-x--x-x--x-x--x--x-x--x-x------------|
-7-x-7-x-7-9--x-9--x-9--10-x-10-x-10-----------|
-0-0-0-0-0-0--0-0--0-0--0--0-0--0-0--0--0--0-0-|


Verse 3: Riff A x 1 (2)

Two T.E.N.Ss, one hundred and two Rock H Designs
We put them in this room with this sex machine and started breeding

Chorus:

 C5D5E5
                                     Say it's not the loneliness
 C5
This one's to the lies
D5 E5 Riff D
And this ones for the absentess now in my life
They say that it's not the worst thing that lives in our minds
 C5D5E5
 But I can't get dressed up anymore.

Chorus: Riff B x 4

They say that it's not the worst thing that lives in our minds
But I can't get dressed up anymore.

C5 Cadd9 D5 E5 Em7
variations - click chord images
Transpose chords:
Tuning:
Cool service:
View: Size:
A  A  A
Rating:
Layout:
  • Currently 2.6/5 Stars.
  • 1
  • 2
  • 3
  • 4
  • 5
 
Accuracy:
  • Currently 2.8/5 Stars.
  • 1
  • 2
  • 3
  • 4
  • 5
 
click stars to rate
Chordie recommends:
Get acoustic guitar lessons and electric guitar lessons at JamPlay.com
Songbook:
Login to add this song to your songbook
Support the artist
Preview/buy this song
MSN Music
Why this non-profit ad?

 
login to add comments/video/corrections