Guitar Tabs, Chords and Lyrics


Tuyo Nang Damdamin  Silent Sanctuary

e|-------------------------------------------------------------------------|


B|-------------------------------------------------------------------------|


G|---------------------2-4-5--5-4-5-7-5-4-3-2-0-5-5--4-5-9-5-4-5-----------|

D|----5-3-2---------5------------------------------------------------------|
A|--3-------5-3-2----------------------------------------------------------|
E|-------------------------------------------------------------------------|
DI[C] SIYA SUS[Am]UNOD, AT D[F]I MAGLA[G]LAMBING
MINSA[C]N DI MO NA M[G]APIGIL MAP[Am]ANSIN
NA TAL[F]AGANG WALA[C] NANG NA[Am]IIWAN N[F]A PAG[C-C7]MAMAHAL
REFRAIN:

AT [F]KAHIT NA ANONG GAWIN

DI MO NA MAPILIT AT M[C-C7]ADAYA
[F]AMININ SA SARILI MO
NA WALA KA NG MABUBU[G]GA
[C]PARANG ‘SANG KANDILA N[G]A NAGDADA[Am]LA
NG ILAW [F]AT LIWANAG
[C]NAUU[Am]BOS RI[F]N SA MA[C-C7]GDAMAG
(INSTRUMENTAL)
e|-------------------------------------------------------------------------|
B|-------------------------------------------------------------------------|
G|---------------------2-4-5--5-4-5-7-5-4-3-2-0-5-5--4-5-9-5-4-5-----------|
D|----5-3-2---------5------------------------------------------------------|
A|--3-------5-3-2----------------------------------------------------------|
E|-------------------------------------------------------------------------|



[D]DI NA MADAIG O [F#m]MABALIK ANG [Bm]DATING MATAM[G]IS NA KAHAPON
[D]PILITIN MA’Y [G]TUYO NA’NG [A]DAMDAMI[D]N (repeat 3times)
(*note*)
(PAUL ANDREW BUCCAT)
PAKI NLNG PO HEHEHE.,ALA MO NA PO HEHE.,
RATE MO PO HUH.,
(SONG KO PO PARA SA MAHAL KONG C PAMELA 30)

Important: The song above is NOT stored on the Chordie server. The original song is hosted at www.guitaretab.com. Chordie works as a search engine and provides on-the-fly formatting. Chordie does not index songs against artists/composers will. To remove this song please click here.

Text color:
Chord color:
Chord grids: 
Font size:    
Page size: 

A Am Bm C D F F#m G
variations - click chord images

Login - add to songbook

Transpose chords

Tuning

Rating click stars to rate

Layout
Accuracy

SHARE PAGE  




You need to log in to post comments