Guitar Tabs, Chords and Lyrics


Mind Reader   Silverchair



-------------------------------------------------------------------------------
			     Mind Reader - Silverchair
-------------------------------------------------------------------------------
Tabbed by: dave293
Email: danderson293@hotmail.com

Tuning: Standard

Intro/Verse:
e|------------------------------------------|
B|------------------------------------------|
G|-----------2-0-----------2-0--------------|
D|---2-2-----2-0---2-2-----2-0--------------|  x4
A|---2-2--4--------2-2--4-------------------|
E|---0-0-----------0-0----------------------|
I heard a hole in the silence....

e|------------------------------------------|
B|----3---3---3-3------3---3---3-3----------|
G|----3---3---3-3------3---3---3-3----------|
D|----3---3---3-3------3---3---3-3----------|
A|----1---1---1-1------1---1---1-1----------|
E|----1---1---1-1------1---1---1-1----------|


Pre Chorusy part:
e|----------------------------------------------------------------------------|
B|----------------------------------------------------------------------------|
G|----11--11--12-12-11-------6--6-7-7--6-------9--9--10--10-----4--4-5--5--4--|x2
D|----10--10--10-10-10-------5--5-5-5--5-------8--8--8---8------3--3-3--3--3--| 
A|----12--12--12-12-12-------7--7-7-7--7-------10-10-10--10-----5--5-5--5--5--|
E|----10--10--10-10-10-------5--5-5-5--5-------8--8--8---8------3--3-3--3--3--|
Still it seems funny, Sticking like honey...

Chorus riff:
e|----------------------------------------------------------------------------|
B|----------------------------------------------------------------------------|
G|----9-9--8-8-8-8--9-9-9---8-8-8--9-9-9---8-8-8------------------------------|
D|-------------------------------------------------8-8-8---9-9-9--------------|
A|----7-7--6-6-6-6--7-7-7---6-6-6--7-7-7---6-6-6------------------------------|
E|-------------------------------------------------6-6-6---7-7-7--------------|
Don't know what you want...

Outro:
e|----------------------------------------------------------------------------|
B|----------------------------------------------------------------------------|
G|----9-9--8-8-8-8--9-9-9---8-8-8--9-9-9---8-8-8---------10-10----6-6---------|
D|-------------------------------------------------8-8-----------------4-4-4-4|
A|----7-7--6-6-6-6--7-7-7---6-6-6--7-7-7---6-6-6---------8--8-----4-4---------|


Important: The song above is NOT stored on the Chordie server. The original song is hosted at www.guitaretab.com. Chordie works as a search engine and provides on-the-fly formatting. Chordie does not index songs against artists/composers will. To remove this song please click here.

This song is displayed as text-only. Transposing and tuning is only available for chordpro-songs.

Login - add to songbook

Rating click stars to rate

Layout
Accuracy

SHARE PAGE  




You need to log in to post comments