Chordie logo

Rusted Wheel   Silversun Pickups



Tabbed by:jon prescott
Email: jprescott@axp.flcc.edu

intro/main riff:
                                     .                .   .     .
e|---------------------------------------------------------------------------|
B|---------------------------------------------------------------------------|
G|---------------------------------------------------------------------------|
D|----------------------------------------------4-4-4-4-4-4-4-4-4b-4---------|
A|---2-2-2---2-2-2-2----/4-4-4-4-4---4-4-4-4----2-2-2-2-2-2-2-2-2--2---------|
E|---3-3-3-0-3-3-3-3-0-----5-5-5-0h5-5-5-5-5-0-------------------------------|
           .   .     .
e|--------------------------                          -2-|
B|--------------------------                          -3-|
G|--------------------------2x then after second time -4-|
D|---4-4-4-4-4-4-4-4-4b-4---                          -4-|
A|---2-2-2-2-2-2-2-2-2--2---                          -2-|
E|--------------------------                          ---|

*main riff is the same just without the last  Bm strum
*listen to the song for the rythm
*the chorus is different but...
*.= upstroke


| /  slide up
| \  slide down
| h  hammer-on
| p  pull-off
| ~  vibrato
| +  harmonic


Important: The song above is NOT stored on the Chordie server. The original song is hosted at www.guitaretab.com. Chordie works as a search engine and provides on-the-fly formatting. Chordie does not index songs against artists/composers will. To remove this song please click here.

This song is displayed as text-only. Transposing and tuning is only available for chordpro-songs.

Login - add to songbook

Rating click stars to rate

Layout
Accuracy

SHARE PAGE  

You need to log in to post comments