Guitar Tabs, Chords and Lyrics


Quien Fuera  Silvio Rodriguez



			       ----- -----

     [G]                      [Em]                                                            
E-|----------------------------------------------------------------------------|
B-|---------3--------3---------------------------------------------------------|
G-|-------0----0---0---0-------0--------0---2-0---0----------------------------|
D-|-----4--------4-----------4---2--024---4-----4---(-2-0-)--------------------|
A-|----------------------------------------------------------------------------|
E-|--3---------------------0---------------------------------------------------|

     [C]                      [Am7]                                                            
E-|----------------------------------------------------------------------------|
B-|---------3--------3-----------3---------3-----------------------------------|
G-|-------0----0---0---0-------0-----0---0---0---------------------------------|
D-|-----4--------4-----------4---------4---------------------------------------|
A-|--3---------------------0---------------------------------------------------|
E-|----------------------------------------------------------------------------|

?? C9/5- Dsus4 G
E-|---------------------0-----2--------------2-0---3-2-020---------------------|
B-|-------3-------3---3-----3---3----------3-----3---------3---0---------------|
G-|-----0---0---0---0-----0-------2------0-------------------2---0-------------|
D-|---4-------4------------------------------------0---------------------------|
A-|-2---------------------------------3----------------------------------------|
E-|--------------------------------------------------------------3-------------|


La parte del arpegio que toca en medio de la cancion que es algo
diferente al resto puede ser algo asi:

    [G]                                        [Em]                               [C]            
E-|----------------------------------------------------------------------------|
B-|---------3-1-0---3-1-0---3-1-0-------------------------------1-0------------|
G-|---0---0-------2-------2-------2-------------------0-2-0---0-----2-0--------|
D-|-----4-----------------------------0---0---2-0-2-4-------4-----------2-0----|
A-|---------------------------------0---4-----------------------------------3--|
E-|-3---------------------------------------0----------------------------------|


La variacion en Em que hace antes de cantar la estrofa de
'Estoy buscando una escafandra..'

                           [Em]                                  [G]                          
		       E-|-----------------------------------------------------|
		       B-|-----------------------------------------------------|
		       G-|---------0-2-0---0-----0-------0---------------------|
		       D-|----4----------4---2-0---0---0-----------------------|
		       A-|---------------------------2-----0-------------------|
		       E-|--0--------------------------------3-----------------|


Y ahora viene la parte cantada, que por cierto no tengo ahora mismo
la cancion y no se si la escribire correctamente, lo siento.

[G] Estoy buscando una p[Em]alabra

[G] en el umbral de tu mist[Em]erio
C (G)Am7 (Bajos)
quien fuera Ali Baba

??
quien fuera el mitico Simbad

quien fuera un poderoso sortil[C]egio

[D/F#]quien fuera encantador
Estoy buscando una escafandra
al pie del mar de los delirios
quien fuera Jacques Cousteau
quien fuera Nemo el capitan
quien fuera el batiscafo de tu abismo
quien fuera explorador

G G(Rasgueo fuerte)-el resto igual
Corazon, corazon oscuro
corazon, corazon con muros
corazon, que se esconde
corazon, que esta donde
corazon, corazon en fuga
herido de dudas y amor.

[G] Estoy buscando melo[Em]dia

[G] para saber como llam[Em]arte
[C] quien fuera [F#m7/D#]ruisenor
[D9] quien fuera [Adim]Lennon y Mc[Em7]artney
Sindo Garay, [D]Violeta, Chico [C]Buarque [C/B]
quien [Am]fuera tu [D/F#]trovad[G]or
Acordes:
-------


G...........320001
Em..........022000
C...........X32010
Am7.........X02010
??..........X24030
D/F#........2X0232
C9/5-.......X3X032
Dsus4.......XX0233
F#m7/D#.....X42222
Adim........X6757X
D9..........X54530
Em7.........X79877

Para lo que querais:

jaiglesias@obelix.cc.creal.ucma.es



Important: The song above is NOT stored on the Chordie server. The original song is hosted at www.guitaretab.com. Chordie works as a search engine and provides on-the-fly formatting. Chordie does not index songs against artists'/composers' will. To remove this song please click here.

Text color:
Chord color:
Chord grids: 
Font size:    
Page size: 

Adim Am Am7 C C/B D D/F# D9 Em Em7 F#m7/D# G
variations - click chord images

Login - add to songbook

Transpose chords

Tuning

Rating click stars to rate

Layout
Accuracy

SHARE PAGE  




You need to log in to post comments