""; ?> Y Nada Mas by Silvio Rodriguez - guitar chords, guitar tabs and lyrics - chordie

Y Nada Mas

Silvio Rodriguez

 GDCA-E-B-
E-|--3---2---0---0---0---2---|
B-|--0---3---1---1---0---3---|
G-|--0---2---0---2---0---4---|
D-|--0---0---2---2---2---4---|
A-|--2-------3---0---2---2---|
E-|--3---------------0-------|


Tab:

E-|---------0---2---3---2---0---2---0-|
B-|-------0---0---0---0---0---0---0---|
G-|-----------------------------------|
D-|-----------------------------------|
A-|--2-0------------------------------|
E-|------0----------------------------|


 DCG
     Esta extra?a tarde
 A-E-
     desde mi ventana 
 DCG
     Trae la brisa vieja
 A-E-
     de por la ma?ana

 B-B-B-A-G
     No hay nada aqu?:          
 B-B-B-A-G
     s?lo unos d?as que se aprestan a pasar,         
 A-A-A-B-C
     s?lo una tarde en que se puede respirar         
 A-A-A-B-C
     un diminuto instante inmenso en el vivir.       
 D
     Despu?s mirar la realidad
 GDE-
     Y nada m?s, y nada m?s.

 DCG
     Ahora me parece
 A-E-
     que hubiera vivido
 DCG
     Un caudal de siglos
 A-E-
     por viejos caminos
 B-B-B-A-G
     No hay nada aqu?:          
 B-B-B-A-G
     s?lo unos d?as que se aprestan a pasar,         
 A-A-A-B-C
     s?lo una tarde en que se puede respirar         
 A-A-A-B-C
     un diminuto instante inmenso en el vivir.       
 D
     Despu?s mirar la realidad
 GDE-
     Y nada m?s, y nada m?s.

---------------------------------------------------

Cualquier duda sobre la tablatura o
informacion que me puedan mandar sobre Silvio.
Mi nombre es Ramon Ponte (Moncho) de Puerto Rico y
mi dirreccion es rfpl@caribe.net

No dejen de ver el "WWW page" de Silvio en
http://spin.com.mx/~hvelarde/Silvio/
---------------------------------------------------				



C D G
variations - click chord images
Transpose chords:
Tuning:
Cool service:
View: Size:
A  A  A
Rating:
Layout:
  • Currently 3.2/5 Stars.
  • 1
  • 2
  • 3
  • 4
  • 5
 
Accuracy:
  • Currently 3/5 Stars.
  • 1
  • 2
  • 3
  • 4
  • 5
 
click stars to rate
Chordie recommends:
Check out these online guitar lessons
Songbook:
Login to add this song to your songbook
Support the artist
Preview/buy this song
MSN Music
Why this non-profit ad?

 
login to add comments/video/corrections