E7
e|---0------------0------------0---------|
B|---3------------3------------3---------|
G|---1------------1------------1---------|
D|------0-5p4h0------0-5p4h0------0-5p4h0|
A|-----2------------2------------2-------|
E|-0-------------0------------0----------|

 E7
e|---0--------------------0-----------|
B|---3--------------------3-----------|
G|---1--------------------1-----------|
D|------0-5p4h0--------------0-5p4h0--|
A|-----2--------------------2---------|
E|-0---------------------0------------|

When she goes, shes gone.

 AG#mAG#mC#
 If she stays, she stays here.   

The girl does what she wants to do.
 A
 She knows what she wants to do.
 AG#mF#mEEF#G#mA
And I know Im fakin it,           
 AG#mF#mE7
Im not really makin it.

 E7
e|---0------------0------------0---------|
B|---3------------3------------3---------|
G|---1------------1------------1---------|
D|------0-5p4h0------0-5p4h0------0-5p4h0|
A|-----2------------2------------2-------|
E|-0-------------0------------0----------|


 E7
e|---0--------------------0-----------|
B|---3--------------------3-----------|
G|---1--------------------1-----------|
D|------0-5p4h0--------------0-5p4h0--|
A|-----2--------------------2---------|
E|-0---------------------0------------|

Im such a dubious soul,

 AG#mAG#m
 And a walk in the garden
 C#
 Wears me down.

Tangled in the fallen vines,
 A
 Pickin up the punch lines,
 AG#mF#mEEF#mG#mA
 Ive just been fakin it,           
 AG#mF#mE7
 Not really makin it.

 E7
e|---0------------0------------0---------|
B|---3------------3------------3---------|
G|---1------------1------------1---------|
D|------0-5p4h0------0-5p4h0------0-5p4h0|
A|-----2------------2------------2-------|
E|-0-------------0------------0----------|


 E7
e|---0-------------------0-----------|
B|---3-------------------3-----------|
G|---1-------------------1-----------|
D|------0-5p4h0-------------0-5p4h0--|
A|-----2-------------------2---------|
E|-0--------------------0------------|

Is there any danger?

 AG#mAG#m
 No, no, not really.
 C#
 Just lean on me.

Takin time to treat your friendly neighbors honestly.

 AG#mF#mEEF#mG#mA
 Ive just been fakin it,            
 AG#mF#mEEF#mG#mA
 Im not really makin it.            
 AG#mF#mEEF#mG#mA
 This feeling of fakin it           
 AG#mF#mE7
 I still havent shaken it.

 E7
e|---0------------0-----------|
B|---3------------3-----------|
G|---1------------1-----------|
D|------0-5p4h0------0-5p4h0--|
A|-----2------------2---------|
E|-0-------------0------------|


 E7
e|---0-------------------0-----------|
B|---3-------------------3-----------|
G|---1-------------------1-----------|
D|------0-5p4h0-------------0-5p4h0--|
A|-----2-------------------2---------|
E|-0--------------------0------------|

Prior to this lifetime

 AG#mAG#C#
 I surely was a tailor. Look at me.

Talking:
 C#G#C#G#
 (good morning, mr. leitch.
Have you had a busy day? )
 C#
 I own the tailors face and hands.
 A
 I am the tailors face and hands and
 AG#mF#mEEF#mG#mA
 know Im fakin it,           
 AG#mF#mEEF#mG#mA
 Im not really makin it         
 AG#mF#mEEF#mG#mA
This feeling of fakin it               
 AG#mF#mEEF#mG#mA
 I still havent shaken it         


A C# E E7 F# F#m G# G#m
variations - click chord images
Transpose chords:
Tuning:
Cool service:
View: Size:
A  A  A
Rating:
Layout:
  • Currently 3.2/5 Stars.
  • 1
  • 2
  • 3
  • 4
  • 5
 
Accuracy:
  • Currently 2.7/5 Stars.
  • 1
  • 2
  • 3
  • 4
  • 5
 
click stars to rate
Chordie recommends:
Learn to play songs at Jamplay.com with video guitar lessons
Songbook:
Login to add this song to your songbook
Support the artist
Preview/buy this song
MSN Music
Why this non-profit ad?

 
login to add comments/video/corrections