eToCache5 = ""; ?> El Condor Pasa by Simon & Garfunkel - guitar chords, guitar tabs and lyrics - chordie

El Condor Pasa

Simon & Garfunkel

 G
e---------------------------------------|-------------|
B-----------------------------------0---|---3---3---0-|
G-------------------0-----0----2--------|-------------|
D----2---1---2---4-----4----------------|-------------|
A-2-------------------------------------|-------------|
E---------------------------------------|-------------|

I'd rather be a sparrow than a snail Yes I would
 Em
e---0--------|----------------|
B------3---0-|--0-------------|
G------------|-----2p0-2p0----|
D------------|--------------2-|
A------------|----------------|
E------------|----------------|

If I could, I surely would
 G
e-------------------------------------|-------------|
B-----------------------------------0-|---3---3---0-|
G-------------------0-----0----2------|-------------|
D----2---1---2---4-----4--------------|-------------|
A-2-----------------------------------|-------------|
E-------------------------------------|-------------|

I'd rather be a hammer than a nail Yes I would
 Em
e----0-----------|----------------|
B--------3----0--|--0-------------|
G----------------|-----2p0-2p0----|
D----------------|--------------2-|
A----------------|----------------|
E----------------|----------------|

If I only could, I surely would

CHORUS:
 CG
e---0------0----0---3---3-|--2---0---3---0---------0--------|
B-0----3-----3------------|-----------------3---3-----3---0-|
G-------------------------|---------------------------------|
D-------------------------|---------------------------------|
A-------------------------|---------------------------------|
E-------------------------|---------------------------------|

Away,I'd rather sail away Like a swam that's here and gone
 CG
e---0--------0-------0------0-----|--0----3----0-----------|
B-0------3--------3------3--------|-----------------3------|
G---------------------------------|------------------------|
D---------------------------------|------------------------|
A---------------------------------|------------------------|
E---------------------------------|------------------------|

A man gets tied up to the ground He gives the world
 Em
e------0-----------|--------------------|
B--3-------3----0--|---0----------------|
G------------------|------2p0-2p0-------|
D------------------|----------------2---|
A------------------|--------------------|
E------------------|--------------------|

It's saddest sound, It's saddest sound
 G
e---------------------------------------|-------------|
B-----------------------------------0---|---3---3---0-|
G-------------------0-----0----2--------|-------------|
D----2---1---2---4-----4----------------|-------------|
A-2-------------------------------------|-------------|
E---------------------------------------|-------------|

I'd rather be a forest than a street Yes I would
 Em
e---0--------|----------------|
B------3---0-|--0-------------|
G------------|-----2p0-2p0----|
D------------|--------------2-|
A------------|----------------|
E------------|----------------|

If I could, I surely would
 G
e-----------------------------------------|--------------|
B-------------------------------------0---|--3---3---0---|
G-----------------------0------0---2------|--------------|
D-----2----1----2----4------4-------------|--------------|
A--2--------------------------------------|--------------|
E-----------------------------------------|--------------|

I'd rather feel the earth beneath my feet Yes I would
 Em
e----0-----------|----------------|
B--------3----0--|--0-------------|
G----------------|-----2p0-2p0----|
D----------------|--------------2-|
A----------------|----------------|
E----------------|----------------|

If I only could, I surely would.

"FINALLY REPEAT THE CHORUS"

Coments: cartablanca_evitaelexeso@hotmail.com



C Em G
variations - click chord images
Transpose chords:
Tuning:
Cool service:
View: Size:
A  A  A
Rating:
Layout:
  • Currently 2.9/5 Stars.
  • 1
  • 2
  • 3
  • 4
  • 5
 
Accuracy:
  • Currently 2.7/5 Stars.
  • 1
  • 2
  • 3
  • 4
  • 5
 
click stars to rate
Chordie recommends:
Learn how to play guitar at JamPlay.com
Songbook:
Login to add this song to your songbook
Support the artist
Preview/buy this song
MSN Music
Why this non-profit ad?

 
login to add comments/video/corrections