Chordie logo


Sounds Of Silence   Simon & Garfunkel



Relative to capo.
 ****CAPO ON 1ST FRET****

 e|---5--5--5--5--5--5--5--5-|
 B|--3--5--3--5--3--5--3--5--|
 G|--------------------------|
 D|--------------------------|
 A|--------------------------|
 E|--------------------------|

 e|---3-3--3-3--3-3--3-3-|
 B|--3----3----3----3----|
 G|----5----5----5----5--|
 D|----------------------|
 A|----------------------|
 E|----------------------|

 e|------0------0------0------0---|
 B|----10-10--10-10--10-10--10-10-|
 G|--10-----10-----10-----10------|
 D|-------------------------------|
 A|-------------------------------|
 E|-------------------------------|

 e|---6---6---5---5-6-5---5---5---5-|-----6---6---6---6---6---6---6---6-|
 B|-----6-------6-------6-------6---|-------6-------6-------6-------6---|
 G|-7-------5---------------5-------|x2-7-------8-------7-------8-------|
 D|---------------------------------|-----------------------------------|
 A|---------------------------------|-----------------------------------|
 E|---------------------------------|-----------------------------------|

 e|---1-1--1-1--1-1--1-1--1-1-|
 B|----1----1----1----3----3--|
 G|--2----3----2----2----2----|
 D|---------------------------|
 A|---------------------------|
 E|---------------------------|

 e|---3-3--3-3--|\
 B|--3----3-----| \
 G|----5----5---|  \Okay...this is where you start over
 D|-------------|  /all again for the next verse..its repeated 5 times.
 A|-------------| /
 E|-------------|/


Important: The song above is NOT stored on the Chordie server. The original song is hosted at www.guitaretab.com. Chordie works as a search engine and provides on-the-fly formatting. Chordie does not index songs against artists/composers will. To remove this song please click here.

This song is displayed as text-only. Transposing and tuning is only available for chordpro-songs.

Login - add to songbook

Rating click stars to rate

Layout
Accuracy

SHARE PAGE  




You need to log in to post comments