Guitar Tabs, Chords and Lyrics


Sun Is Burning  Simon & Garfunkel

|-----------------------------2-5--|


|----2-3-5-3-2--------------3------|


|--------------4-2---2--2-4--------|

|----------------0-----------------|
|--0-------------------------------|
|----------------------------------|
|--4-2---2-4-7-4-2------------------------------|
|------5-----------5-3-2---------------2--------|
|------------------------4-2-4-2---2-4---2-4-2--|
|--2-------------2------------------------------|
|-----------------------------------------------|
|-----------------------------------------------|
[A]The sun is bur[D]ning in the [A]sky.
[D]Strands of clouds go slowly drift[E]ing by.
[A]In the p[G#]ark, the lazy [F#m]bees
[D]Are droning in the flowers among the trees.
[A]And the sun b[D]urns in the sk[A]y.
[A]Now the sun is[D] in the west[A].
[D]Little kids go home to take th[E]eir rest.
[A]And the [G#]couples in the[F#m] park
Are holding hands and waiting for the dark.

And the sun is in the west.
[A]Now the sun i[D]s sinking l[A]ow.
[D]Children play and know it's time to g[E]o.
[A]High abo[G#]ve, a spot app[F#m]ears.
A little blossom blooms and then draws near.
And the sun is sinking low.

[A]Now the sun h[D]as come to [A]earth.
Shrouded in a mushroom cloud of death.
[A]Death co[G#]mes in a blind[F#m]ing flash.
Of hellish heat and leaves a smear of ash.
And the sun has come to earth.

[A]Now the sun h[D]as disappea[A]red.
All is darkness anger pain and fear.
[A]Twisted, si[G#]ghtless wrecks of[F#m] men
[D]Go groping on their knees and cry in p[E]ain.
[A]And the s[D]un has disap[E]peared.

Important: The song above is NOT stored on the Chordie server. The original song is hosted at www.guitaretab.com. Chordie works as a search engine and provides on-the-fly formatting. Chordie does not index songs against artists'/composers' will. To remove this song please click here.

Text color:
Chord color:
Chord grids: 
Font size:    
Page size: 

A D E F#m G#
variations - click chord images

Login - add to songbook

Transpose chords

Tuning

Rating click stars to rate

Layout
Accuracy

SHARE PAGE  




You need to log in to post comments