Perfect

Simple Plan

e|---------------------------------------------------|

B|---------------------------------------------------|
G|--8-7-8-------6----------8-7-8s10-----6------------|
D|--8-----8-----6-5--------8------------6-5----------|
A|--6-----------4---6------6------------4---6--------|
E|---------------------------------------------------|

Verrse I:

 Eb
 Hey dad look at me
 G#
  Think back and talk to me
 EbG#
Did I grow up according to plan?
 EbG#
 And do you think I'm wasting my time doing things I wanna do?
 EbG#
But it hurts when you disapprove all along

Refrain:

 Fm
And now I try hard to make it
 G#Eb
 I just want to make you proud
 Fm
I'm never gonna be good enough for you  
 FmG#
  I can't pretend that I'm alright
 Eb
And you can't change me

Chorus:

 Eb
 Cos we lost it all
 Bb
 Nothing lasts forever
 Cm
 I'm sorry
 G#
I can't be perfect
 Eb
 Now it's just too late and
 Bb
 We can't go back
 Cm
I'm sorry
G#~ Eb - G# - Eb- G#
I can't be perfect

Verse II:

 Eb
 I try not to think
 G#
  About the pain I feel inside
 EbG#
Did you know you used to be my hero?
 Eb
All the days you spend with me
 G#
 Now seem so far away
 EbG#
And it feels like you don't care anymore

Refrain:

 Fm
And now I try hard to make it
 G#Eb
 I just want to make you proud
 Fm
I'm never gonna be good enough for you  
 FmG#
  I can't stand another fight
 Eb
And nothing's alright

Chorus:

 Eb
 Cos we lost it all
 Bb
 Nothing lasts forever
 Cm
 I'm sorry
 G#
I can't be perfect
 Eb
 Now it's just too late and
 Bb
 We can't go back
 Cm
I'm sorry
 G#
I can't be perfect

 CmBb
 Nothing's gonna change the things that you said
 CmG#
 Nothing's gonna make this right again
 Cm
 Please don't turn your back
 Bb
 I can't believe it's hard
 G#
Just to talk to you
 Eb
But you don't understand

Interlude:

e|---------------------------------------------------|
B|---------------------------------------------------|
G|--8-7-8-------6----------8-7-8s10-----6------------|
D|--8-----8-----6-5--------8------------6-5----------|
A|--6-----------4---6------6------------4---6--------|
E|---------------------------------------------------|


(Repeat Choru until finish)

Enjoy!!!


Bb Cm Eb Fm G#
variations - click chord images
Transpose chords:
Tuning:
Cool service:
View: Size:
A  A  A
Rating:
Layout:
  • Currently 4.4/5 Stars.
  • 1
  • 2
  • 3
  • 4
  • 5
 
Accuracy:
  • Currently 4.4/5 Stars.
  • 1
  • 2
  • 3
  • 4
  • 5
 
click stars to rate
Chordie recommends:
Learn to play songs at Jamplay.com with video guitar lessons
Songbook:
Login to add this song to your songbook
Support the artist
Preview/buy this song
MSN Music
Why this non-profit ad?

 
login to add comments/video/corrections