Chordie logo


Tout Le Bonheur Du Monde  Sinsemilia

 e----------------------------------------------------------------|


 B---------------------------------------------------3--1---------|


 G----------2-------------------------5--4----2--2----------------|

D--1/2--2-----2--3-----3/5---5--5--------------------------------|
A----------------------------------------------------------------|
E----------------------------------------------------------------|
[Am]On vous souhaite tout le bonheur du [F]monde
[G]Et que quelqu'un vous tende la [Am]main
[Am]Que votre chemin evite les [F]bombes
[G]Qu'il mene vers de calmes [Am]jardins
[Am]On vous souhaite tout le bonheur du [F]monde
[G]Pour aujourd'hui comme pour [Am]demain
[Am]Que votr'soleil eclaircisse l[F]'ombre
[G]Qu'il brille d'amour au [Am]quotidien
[G]Puisque l'avenir vous [Am]appartient
[Bb]Puisqu'on ne controle pas votr'destin
[Dm]Que votre oral est pour demain
[G]Comme tout c'qu'on a a vous [Am]offrir
[Bb]Ne saurait toujours vous suffir
[Dm]Dans cette liberté a venir
[Bb]Puisqu'on n'sera pas toujours [Dm]la
[Bb]Comme on le fut aux premiers p[Dm]as
CHORUS

[G]Toute une vie s'offre devant [Am]vous
[Bb]Tant d'reves a vivre jusqu'au bout
[Dm]Sur'ment tant d'joie au rendez-vous
[G]Libres de faire vos propres [Am]choix
[Bb]De choisir quelle sera votr'voie
[Dm]Et ou celle-ci vous emmenera
[Bb]J'espere juste que vous prendrez l'[Dm]temps
[Bb]De profiter de chaque insta[Dm]nt

CHORUS

BRIDGE
[Bb]    [Am]                                 
SOLO - abit of each Wah-Wah, reverb, and distortion

 e-----------------------------------------------------12--------|
 B------------------------------------------------13h15--15p13---|
 G--14--12---10p12-9-9-9---9-10-12-14^(15)-12--14-------------14-|
 D---------------------------------------------------------------|
 A---------------------------------------------------------------|
 E---------------------------------------------------------------|
 e---------------------------------------------------------------|
 B---13-----------------------------------------13---------------|
 G------15-15-15--15--14--15--14---14h15p14--12----15-15-12-14---|
 D---------------------------------------------------------------|
 A---------------------------------------------------------------|
 E---------------------------------------------------------------|
 e---------------------------------------------------------------|
 B---13----------------------------------------------------------|
 G------15-15-15--15--14--15--14---14h15p14--12------------------|
 D---------------------------------------------------------------|
 A---------------------------------------------------------------|
 E---------------------------------------------------------------|


[G]J'sais pas quel monde on vous laiss'[Am]ra
[Bb]On fait d'notre mieux seulement parfois...
[Dm]J'ose esperer qu'ca suffira
[G]Pas a sauver votre insoucia[Am]nce
[Bb]Mais a apaiser notr'conscience
[Dm]Pour l'reste j'me dois d'vous faire confiance

CHORUS

On vous souhaite tout le bonheur du monde
Oh oui tout le bonheur du monde
On vous souhaite tout le bonheur du monde
Oh oui tout le bonheur du monde
On vous souhaite tout le bonheur du monde
Oh oui tout le bonheur du monde
Que votr'chemin evite les bombes
Qu'il mene vers de calmes jardins
On vous souhaite tout le bonheur du monde
Oh oui tout le bonheur du monde
On vous souhaite tout le bonheur du monde
Oh oui tout le bonheur du monde

Important: The song above is NOT stored on the Chordie server. The original song is hosted at www.guitaretab.com. Chordie works as a search engine and provides on-the-fly formatting. Chordie does not index songs against artists/composers will. To remove this song please click here.

Text color:
Chord color:
Chord grids: 
Font size:    
Page size: 

Am Bb Dm F G
variations - click chord images

Login - add to songbook

Transpose chords

Tuning

Rating click stars to rate

Layout
Accuracy

SHARE PAGE  




You need to log in to post comments