Chordie logo


All For You   Sister Hazel



Sister Hazel All for you Solo Guitar Tab

Legend:-
~ = vibrato
h = hammer on
p = pull off
/ = slide up
\ = slide down
b = bend whole note

E|------------------------------------------------------------------6—-8--8-|
B|--------------6—-9—-8—-6—-8—-6----6--------------------5—-6—-8—-9---------|
G|2/6-8-8-8-8-8----------------------------8-1-5-3-6-5-8--------------------|
D|--------------------------------------------------------------------------|
A|--------------------------------------------------------------------------|
E|--------------------------------------------------------------------------|

            ~                ~   ~   ~   ~ \h p h p   *hp h p h-p-h-p-h-p
E|8-6-6------------6-8-9-11-13--13--13—-13—-9-7-9-7---7-6-7-6--------------|
B|------9-8-9—-9-9--------------------------------------------9-8-9-8-6-5--|
G|-------------------------------------------------------------------------|
D|-------------------------------------------------------------------------|
A|-------------------------------------------------------------------------|
E|-------------------------------------------------------------------------|

  h-p-h-p-  ~  ~           h  p    h  p        ~
E|-------------6-----18b-17 18-17-15-17-15-13-13b--------------------------|
B|6-5-8-9-8-9--------------------------------------------------------------|
G|-------------------------------------------------------------------------|
D|-------------------------------------------------------------------------|
A|-------------------------------------------------------------------------|
E|-------------------------------------------------------------------------|


This is my first try at a guitar tab so feel free to email me with any complaints, 


Important: The song above is NOT stored on the Chordie server. The original song is hosted at www.guitaretab.com. Chordie works as a search engine and provides on-the-fly formatting. Chordie does not index songs against artists/composers will. To remove this song please click here.

This song is displayed as text-only. Transposing and tuning is only available for chordpro-songs.

Login - add to songbook

Rating click stars to rate

Layout
Accuracy

SHARE PAGE  




You need to log in to post comments

kevster1963 (report)

the chorus is G Cadd9 Am D 4 times then G one strum Cadd9 two strums G two strums

runnermike149 (report)

Use a capo on 2nd fret