Chordie logo

Waiting For Decay   Six Feet Under



Six Feet Under - Waiting For Decay
Album: True Carnage

08-08-2002, Thomas Klopf

.  ... (light) palm mute (Listen to the song to hear what is used)
"  ... tremolo picking

Tuning: D G C F A D (1 step down)

Riff A
|--------------------|
|--------------------|
|--------------------|
|--------------------|
|-7"-6"--2-3-5-7-6-7-|
|--------0-1-3-5-4-5-|
         . . . . . .

Riff B
|--------------------|
|--------------------|
|--------------------|
|--------------------|
|-2-3-4-5-2-5--------|
|-0-1-2-3-4-3--3"-2"-|
  . . . . . .

Riff C and D
|-------------||-------------|
|-------------||-------------|
|-------------||-------------|
|-------------||-------------|
|-------------||-------------|
|-3"-2"-5"-2"-||-5"-4"-7"-4"-|

Riff E
|--------------------------|
|--------------------------|
|--------------------------|
|--------------------------|
|-5-4-3-4-3-2--------------|
|-3-2-1-2-1-0--1-111-0-000-|
  . . . . . .  . ... . ...

Solo backing rythm
|------------|
|------------|
|------------|
|------------|
|-2--5--4--3-|


Important: The song above is NOT stored on the Chordie server. The original song is hosted at www.guitaretab.com. Chordie works as a search engine and provides on-the-fly formatting. Chordie does not index songs against artists/composers will. To remove this song please click here.

This song is displayed as text-only. Transposing and tuning is only available for chordpro-songs.

Login - add to songbook

Rating click stars to rate

Layout
Accuracy

SHARE PAGE  



You need to log in to post comments