Guitar Tabs, Chords and Lyrics


Unbelievable  Skin

----------------------------------------------------------------------------



----------------------------------------------------------------------------

     [D]    [A]    [Bm]     [G]    [C]                                                             
e|---2---0----2---3---3---|
B|---3---2----3---3---3---|
G|---2---2----4---0---0---|
D|---0---2----4---0---2---|
A|-------0----2---2---3---|
E|----------------3-------|

Intro:

    [D]                                                                               
e|--2-0-2----|
B|--3-3-3----|
G|--2-2-2----|
D|--0-0-0----|
A|-----------|
E|-----------|


Verse 1:
[D]Undeniable, so [A]incredible
Simply [Bm]wonderful, you're [G]beautiful
Ever[D]ything I am, and I [A]wanna be    [G]      [A]

You see in me


Verse 2:
I wanna [D]touch your skin
Til it feels like[A] we've sinned
And take you [Bm]places
That you've [G]never been
Oh baby [D]this is real
The way you make me [A]feel, [G]unbe[A]liev[D]able


Chorus:
         [Bm]             [G]             [D] [A] [G]Got your breath on my skin and the taste of your kiss
[G]Every inch and every cu[A]rve
Late at [Bm]night, can't [G]believe when you [D]lie next to [A]me
'Cause I [G]know this is more than I [A]deserve


Break:
    [C]    [G]               [D]    [C]     [G]                                                   
e|--3---3--------------2---3----3----------------------|
B|--3---3--------------3---3----3----------------------|
G|--0---0--------------2---0----0----------------------|
D|--2---0--------------0---2----0----------------------|
A|--3---2---2h3p2p0--------3----2----------------------|
E|------3-----------------------3-----000-222-333-555--|


Chorus 2:
         [Bm]             [G]             [D] [A] [G]Got your breath on my skin and the taste of your kiss
[G]Every inch and every [A]curve
Late at [Bm]night, can't [G]believe when you [D]lie next to [A]me
'Cause I [G]know this is more than I[A] deserve


Verse 3:
Und[D]eniable, so [A]incredible
Simply [Bm]wonderful, you're [G]beautiful
Unm[D]istakable, the way you [A]make me feel     [G]
[A]Unbelievable.  [Bm]    [G]   [A]   [D]


11/12/05


| / slide up
| \ slide down
| h hammer-on
| p pull-off
| ~ vibrato
| + harmonic
| x Mute note
============================================================================

Important: The song above is NOT stored on the Chordie server. The original song is hosted at www.guitaretab.com. Chordie works as a search engine and provides on-the-fly formatting. Chordie does not index songs against artists'/composers' will. To remove this song please click here.

Text color:
Chord color:
Chord grids: 
Font size:    
Page size: 

A Bm C D G
variations - click chord images

Login - add to songbook

Transpose chords

Tuning

Rating click stars to rate

Layout
Accuracy

SHARE PAGE  




You need to log in to post comments