Guitar Tabs, Chords and Lyrics


Tomorrow Belongs To Me   Skrewdriver



You're on your own with the intro.


Verse:
|-----------------|
|-----------------|
|----------5------|
|--5---3---5---5--|
|--5---3---3---5--|
|--3---1-------3--|

Chorus:
|-----------------|
|-----------------|
|--7--5-----------|
|--7--5--5---3-3--|
|--5--3--5---3-3--|
|--------3---1-5--|


So, I got bored and decided to tab out the piano intro to Saga's version of Tomorrow 
to Me. So here's my attempt:

|-----------------------------------------------------|
|--5--3--1--3--------------6--5-----3--5--3--1--------|
|--------------5--3--5--5--------5--------------3--5--|
|-----------------------------------------------------|
|-----------------------------------------------------|
|-----------------------------------------------------|

Here's the one that sounds like the "cabaret" soundtrack:

|--5-5-7-5-3-2-0-2-0---0------5-5-7-5-10-9-7-5-----|
|--------------------3-----------------------------|
|--------------------------------------------------|
|--------------------------------------------------|
|--------------------------------------------------|
|--------------------------------------------------|

|--2-0-2-3-3-2-3-5-10-7-----3-2-3-5---0------------|
|-----------------------------------3---3----------|
|--------------------------------------------------|
|--------------------------------------------------|
|--------------------------------------------------|
|--------------------------------------------------|



Important: The song above is NOT stored on the Chordie server. The original song is hosted at www.guitaretab.com. Chordie works as a search engine and provides on-the-fly formatting. Chordie does not index songs against artists/composers will. To remove this song please click here.

This song is displayed as text-only. Transposing and tuning is only available for chordpro-songs.

Login - add to songbook

Rating click stars to rate

Layout
Accuracy

SHARE PAGE  




You need to log in to post comments