Guitar Tabs, Chords and Lyrics


Another Brick In The Wall   Skywind



Song: Another Brick in the Wall
Band: Skywind
Tuning: Standard
Tabber: Metallica4ever27

This is an excellent metal version of the classic ?Another Brick in the Wall?.
Everything you need is on this sheet. If it is slightly out of order, I apologize.
Just look the tab over and everything will make sense.
Serve with distortion in liberal amounts. Enjoy!

Strike, then Pm with some accenting. Listen to CD to get perfect.







                    ** bass line**
When I grew up and went to school and there were?
(play chord changes in this order)
|-----------------------------------------------------------|
|-----------------------------------------------------------|
|-----------------------------------------------------------|
|-7------3------10-----12-----7-----3-----7-----2-----7-----|
|-7------3------10-----12-----7-----3-----5-----2-----7-----|
|-5------1------08-----10-----5-----1-----5-----0-----5-----|

Then?
|-----------------------------------------------|
|-----------------------------------------------|
|-7-7-7--7-5--3-3-3--3----------------5-x-5-5---|
|-7-7-7--7-3--3-3-3--1-7--5-5-5--5-3--5-x-5-5---|
|-5-5-5--5-3--1-1-1--1-7--5-5-5--5-1--3-x-3-3---|
|----------------------5--3-3-3--3-1------------|

Let ring as needed
|------|-----|------|
|------|-----|------|
|------|-----|------|
|--10--|--5--|--17--|
|--10--|--5--|--17--|
|--08--|--3--|--15--|

We don?t need no education...
|-----------------------------|--------------------------|
|-----------------------------|--------------------------|
|--------------------------7--|-----------------------7--|
|--------------------------7--|-----------------------7--|
|--5--7--8--7--5--7--8--7--5--|--5--7--8--7--5--7--8--5--|
|-----------------------------|--------------------------|

Hey Teacher, Leave them kids alone!
|--------------------------|
|--------------------------|
|--12---5---7-----7-5-7----|
|--12---5---7-----7-5-7----|
|--10---3---5-----5-3-5----|
|--------------------------|

All and all it was, all just bricks in the wall
|-------------------------------------------------------|
|-------------------------------------------------------|
|--10------------------5----------------------7---------|
|--08------------------5----------------------7---------|
|--08------------------3----------------------5---------|
|-------------------------------------------------------|

Solo scale is in C, so just improve and PRESTO!
Now you are a rock star! E-mail with QUESTIONS!
I know this is right. If it is wrong,
It?s a typo, not on purpose.


Important: The song above is NOT stored on the Chordie server. The original song is hosted at www.guitaretab.com. Chordie works as a search engine and provides on-the-fly formatting. Chordie does not index songs against artists'/composers' will. To remove this song please click here.

This song is displayed as text-only. Transposing and tuning is only available for chordpro-songs.

Login - add to songbook

Rating click stars to rate

Layout
Accuracy

SHARE PAGE  




You need to log in to post comments