Chordie logo


Ku Tak Bisa   Slank



Abdee - Ku tak bisa


Yang maen lead guitar pada lagu ku tak bisa adalah abdee,
keren banget loh, coba aja, nih ...

**************************************************************
ini dipake pas reff (melody yang ngiringin reff)

E-------------------------------------------------------------|
B-------5-5h6---------5-5h6---5^-----3~~~~--------------------|
G-----7-------------5-----------------------------------------|
D-5h7-----------5h7-------------------------------------------|
A-------------------------------------------------------------|
E-------------------------------------------------------------|


**************************************************************
ini melody tengahnya ... (yang keren abiz itu ...)

E-------------------------------------------------------------|
B-------------------------------------------------------------|
G----------12/14-14---14\12---9^-9----------------------------|
D-------10----------------------------------------------------|
A-10h12-------------------------------------------------------|
E-------------------------------------------------------------|


E-------------------------------------------------------------|
B---------------------------------------------------10-11-11--|
G----------12/14-14---14\12--------------------9-12-----------|
D-------10--------------------9^-9--------9-12----------------|
A-10h12-----------------------------10-12---------------------|
E-------------------------------------------------------------|


E-------------------------------------------------------------|
B-10-8-10h11---11p10-8-------------------------10-11-12-13----|
G--------------------------------------9-10-12----------------|
D------------------------------9-10-12------------------------|
A------------------------11-12--------------------------------|
E-------------------------------------------------------------|


E-10-11-12-13/----17---13/---17---13/--17---13/---17----------|
B-------------------------------------------------------------|
G-------------------------------------------------------------|
D-------------------------------------------------------------|
A-------------------------------------------------------------|
E-------------------------------------------------------------|

Kau dan aku tercipta, tak boleh terpisah ...
E-------1----------------------1------------------------------|
B-------1----------------------1------------------------------|
G-------2----------------------1------------------------------|
D-------3----------------------3------------------------------|
A-------3----------------------3------------------------------|


Important: The song above is NOT stored on the Chordie server. The original song is hosted at www.guitaretab.com. Chordie works as a search engine and provides on-the-fly formatting. Chordie does not index songs against artists/composers will. To remove this song please click here.

This song is displayed as text-only. Transposing and tuning is only available for chordpro-songs.

Login - add to songbook

Rating click stars to rate

Layout
Accuracy

SHARE PAGE  




You need to log in to post comments