Chordie logo


Directions   Slapshock



Song:Direction
Album:Silence
Artist:Slap Shock
tabber:jeffrey S.....
Notes:pakinggan nyo lang ang kanta para malamn nyo kung ano ang tono..............seeee uuu (",)....


Gtr.Tuning:Standard

Gtr.1                 Gtr.2 Enters
I need your own       If I pushing you 
advice...             away...
e|------------        ---------------------|
B|------------        ---------------------|
G|-666666/6\6- Repeat ---------------------|
D|-xxxxxx-x--- 4x     --6-9--11-11-11-11---|
A|-444444/5\4-        --4-7--9--9--9--9----|
E|------------        ---------------------|


e|-----------------------|
B|-----------------------|
G|-----------------------|
D|---------999--111111---|
A|-444444--777--9-9-9----|
E|-----------------------|
   ......

Gtr.1           Gtr.2
e|----------    --------------------------|
B|----------    --------------------------|
G|----------    -11b-12b-13b-15b-17h18----| 2x
D|----------    --------------------------|
A|-44444444-    --------------------------|
E|----------    --------------------------|
   ........

I need your attention...         I'm looking in ur eyes...
e|-------------------------      ---------------------------|
B|-------------------------      --13-13-13-13-13-13-13-13--|
G|------------------------- 2x   ---------------------------|
D|-77777-66666-77777-66666- Then ---------------------------|
A|-77777-44444-77777-44444-      ---------------------------|
E|-55555-------55555-------      ---------------------------|

Bridge:
Gtr.1                          Gtr.2 Enters
e|--------------------------   -99-12--99-13--99-14--99-15--99-16--99-15--|
B|--------------------------   -------------------------------------------|
G|--------------------------   -------------------------------------------|
D|--------------------------   -------------------------------------------|
A|-00-7-00-6-00-4-00-3-00-4-   -------------------------------------------|
E|-00-5-00-4-00-2-00-1-00-2-   -------------------------------------------|
   ..   ..   ..   ..   ..

Clean:
I need your                Point me to the
attention...               right direction... 
e|-------------------      ------------------------|
B|-13131313-12121212-      ------------------------|
G|-14141414-13131313- Then --------------66666666--|
D|-12121212-11111111-      --7777777777--66666666--|
A|-------------------      --7777777777--44444444--|
E|-------------------      --5555555555------------|

Outro:
e|--------------|
B|--------------|
G|-6~--6~--6~---|
D|-6~--6~--6~---|
A|-4~--4~--4~---|
E|--------------|

End...

 
hehehehe......................
hi to alll my friends na sila john moratin,lemuel merilles,oliver mungcal
jammy pantollano.....heeeeeeeeeeeeeeeee


Important: The song above is NOT stored on the Chordie server. The original song is hosted at www.guitaretab.com. Chordie works as a search engine and provides on-the-fly formatting. Chordie does not index songs against artists/composers will. To remove this song please click here.

This song is displayed as text-only. Transposing and tuning is only available for chordpro-songs.

Login - add to songbook

Rating click stars to rate

Layout
Accuracy

SHARE PAGE  




You need to log in to post comments