Guitar Tabs, Chords and Lyrics


Anywhere I Go   Slightly Stoopid



----------------------------------------------------------------------------
			     Anywhere I Go - Slightly Stoopid
----------------------------------------------------------------------------
Tabbed by: DannyZ805
Email:  DannyZ805@hotmail.com

Tuning: standard

(0:00)

e|----3-----------3-5----3--------------------------------------|
B|----3-----------4-6----3------------------------(------15---)--|
G|----3-----------5-7----3------------------------(---17------)--|
D|----5--5p3------5-7----5--17p15-----------------(17------17~)--|
A|----5------5-4--3-5----5--------17-16--15~-[17~]---------------|
E|--3-3-----------3-5--3-3--------------------------------------|x2

[ ] = first time
( ) = second time
rhythm acoustic continues with the Cm and Dm during ( )
when singing starts its only Gm Cm Dm

same until electric starts at (1:44)

e|--3--3--3--5----------------------|
B|--3--3--4--6----------------------|
G|--3--3--5--7----------------------|
D|--5--5--5--7----------------------|
A|--5--5--3--5----------------------|
E|--3--3--3--5--x8------------------|


synth solo until (2:32)


e|--3--3--3--5----------------------|
B|--3--3--4--6----------------------|
G|--3--3--5--7----------------------|
D|--5--5--5--7----------------------|
A|--5--5--3--5----------------------|
E|--3--3--3--5--x8------------------|


rhythm guitar palm muted (continuous)
e|------------------------------|
B|------------------------------|
G|------------------------------|
D|--5-5-5-3---------3-----5-----|
A|----------5-3---5---3-5-------|
E|------------------------------|



(3:34)

e|--3--3--3--5----------------------|
B|--3--3--4--6----------------------|
G|--3--3--5--7----------------------|
D|--5--5--5--7----------------------|
A|--5--5--3--5----------------------|
E|--3--3--3--5--x8------------------|

guitar stops at (3:59)

fades out to (4:28)

| /  slide up
| \  slide down
| h  hammer-on
| p  pull-off
| ~  vibrato
| +  harmonic
| x  Mute note


Important: The song above is NOT stored on the Chordie server. The original song is hosted at www.guitaretab.com. Chordie works as a search engine and provides on-the-fly formatting. Chordie does not index songs against artists'/composers' will. To remove this song please click here.

This song is displayed as text-only. Transposing and tuning is only available for chordpro-songs.

Login - add to songbook

Rating click stars to rate

Layout
Accuracy

SHARE PAGE  




You need to log in to post comments