Chordie logo


Zusammen   Slime



Intro

e|------------|-------------|-------------|-----2-3-232-||
b|----0-------|-----1-------|-----0-------|---3---------||
g|------0-----|-------0-----|-------0-----|-2-----------||
D|--2-----2---|---2-----2---|---0-----0---|-------------||
A|----------2-|-3---------3-|-----------2-|-------------||
E|0-----------|-------------|-3-----------|-------------||


Ref: Em C G D

Bridge:
e|---------------||
b|---------------||
g|---------------||
D|0--------------||
A|-3-2-0-2-0-----||
E|-----------3-2-||

e|---------------------------------------------------------------------|
b|---------------------------------------------------------------------|
g|----------------------55-5----44-4-------------------------5-5-4-----|
D|-2-22-3-2-22----------55--5-5-44--4-4-2-22-3-2-22----------5-5-4-----|
A|-2-22-3-2-22----0--02-33---3--22---2--2-22-3-2-22----0--02-3-3-2-----|
E|-0-00-3-0-00-023-23-------------------0-00-3-0-00-023-23---------3-2-|


e|-------------------------------------------------------------------|
b|-------------------------------------------------------------------|
g|2-2-2-2-2-2-5-5-------------5-4-2-2-2-2-2-2-5-4---------7-7-7-7-7\-|
D|2-2-2-2-2-2-5-5-4-4-4-4-4-4-5-4-2-2-2-2-2-2-5-4-5-5-5-5-7-7-7-7-7\-|
A|0-0-0-0-0-0-3-3-2-2-2-2-2-2-3-2-0-0-0-0-0-0-3-2-5-5-5-5-5-5-5-5-5\-|


Important: The song above is NOT stored on the Chordie server. The original song is hosted at www.guitaretab.com. Chordie works as a search engine and provides on-the-fly formatting. Chordie does not index songs against artists/composers will. To remove this song please click here.

This song is displayed as text-only. Transposing and tuning is only available for chordpro-songs.

Login - add to songbook

Rating click stars to rate

Layout
Accuracy

SHARE PAGE  




You need to log in to post comments