Guitar Tabs, Chords and Lyrics


Pain   Slipknot



Slipknot Pain
s=slide
Note: to put the amplifier in distorcion of hoarse form

-------------------------------------|
-------------------------------------|
-------------------------------------|
-------------------------------------|
-------3-3-3-3-3-3-3-3-3-s-8-s-3-2-2-|
------2-2-2-2-2-2-2-2-2-2-s7-s-2-2-2-|

-------------------------------------|
-------------------------------------|
-------------------------------------|
-------------------------------------|
-------3-3-3-3-3-3-3-3-3-s-8-s-3-2-2-|
------2-2-2-2-2-2-2-2-2-2-s7-s-2-2-2-|

-------------------------------------|
-------------------------------------|
-------------------------------------|
-------------------------------------|
-------3-3-3-3-3-3-3-3-3-s-8-s-3-2-2-|
------2-2-2-2-2-2-2-2-2-2-s7-s-2-2-2-|

-------------------------------------|
-------------------------------------|
-------------------------------------|
-------------------------------------|
-------3-3-3-3-3-3-3-3-3-s-8-s-3-2-2-|
------2-2-2-2-2-2-2-2-2-2-s7-s-2-2-2-|


-------------------------------------|
-------------------------------------|
-------------------------------------|
-------------------------------------|
-------3-3-3-3-3-3-3-3-3-s-8-s-3-2-2-|
------2-2-2-2-2-2-2-2-2-2-s7-s-2-2-2-|

-------------------------------------|
-------------------------------------|
-------------------------------------|
-------------------------------------|
-------3-3-3-3-3-3-3-3-3-s-8-s-3-2-2-|
------2-2-2-2-2-2-2-2-2-2-s7-s-2-2-2-|

-------------------------------------|
-------------------------------------|
-------------------------------------|
-------------------------------------|
----4--------------------------------|
----3--------------------------------|

-------------------------------------|
-------------------------------------|
-------------------------------------|
-------------------------------------|
----6--------------------------------|
----7--------------------------------|

----10-------------------------------|
----11-------------------------------|

-------------------------------------|
-------------------------------------|
-------------------------------------|
-------------------------------------|
-------3-3-3-3-3-3-3-3-3-s-8-s-3-2-2-|
------2-2-2-2-2-2-2-2-2-2-s7-s-2-2-2-|

-------------------------------------|
-------------------------------------|
-------------------------------------|
-------------------------------------|
-------3-3-3-3-3-3-3-3-3-s-8-s-3-2-2-|
------2-2-2-2-2-2-2-2-2-2-s7-s-2-2-2-|

-------------------------------------|
-------------------------------------|
-------------------------------------|
-------------------------------------|
-------3-3-3-3-3-3-3-3-3-s-8-s-3-2-2-|
------2-2-2-2-2-2-2-2-2-2-s7-s-2-2-2-|

-------------------------------------|
-------------------------------------|
-------------------------------------|
-------------------------------------|
-------3-3-3-3-3-3-3-3-3-s-8-s-3-2-2-|
------2-2-2-2-2-2-2-2-2-2-s7-s-2-2-2-|


-------------------------------------|
-------------------------------------|
-------------------------------------|
-------------------------------------|
-------3-3-3-3-3-3-3-3-3-s-8-s-3-2-2-|
------2-2-2-2-2-2-2-2-2-2-s7-s-2-2-2-|

-------------------------------------|
-------------------------------------|
-------------------------------------|
-------------------------------------|
-------3-3-3-3-3-3-3-3-3-s-8-s-3-2-2-|


Important: The song above is NOT stored on the Chordie server. The original song is hosted at www.guitaretab.com. Chordie works as a search engine and provides on-the-fly formatting. Chordie does not index songs against artists'/composers' will. To remove this song please click here.

This song is displayed as text-only. Transposing and tuning is only available for chordpro-songs.

Login - add to songbook

Rating click stars to rate

Layout
Accuracy

Jango Player

SHARE PAGE  




You need to log in to post comments