Call It Something Nice

Small Faces

----------------------

E-0h5--5--0h5--5--5--5--3--2--2h3--0--|
B-------------------------------------|
G-------------------------------------|
D-------------------------------------|
A-------------------------------------|
E-------------------------------------|

 AmEDDsus4D
 AmEDDsus4DAm
 Oh, can?t you see it?s not me    you?re looking for?
 AmEDDsus4DAm
 I?m not the   one to   show you   the way.
 GAmDDsus4DAm
 The answer is you, it was and   will always be.
 GAmDDsus4DAm
 The answer is you, and certainly not me.

 AmEDDsus4DAm
 It?s not this I say for wanting   to hurt you,
 AmEDDsus4DAm
 But this I say for wanting   to help:
 GAmDDsus4DAm
 Please see the good, and don?t see   the bad in me;
 GAmDDsus4DAm
 The good and the bad are both in    your sense.

 AmEAmE
 AmE
 Oh, please don?t grow, don?t grow to depend on me,
 AmE
 Don?t lean on me ?cause I might let you down.

Solo bit something like this:
E--------------------3--2--0--|
B-------1------------3--3--1--|
G----2------------2-----------|
D-2---------------------------|
A----------2------------------|
E-----------------------------|


 AmEDDsus4D
 AmEDDsus4DAm
 Make much of now, tomorrow   may never be.
 AmEDDsus4DAm
 Make much of now, and don?t turn  around.
 GAmDDsus4DAm
 Look for the light that?s so bright you cannot see.
 GAmDDsus4DAm
 Look for the light, and don?t look  for me, yeah!

After this the lead guitar plays something similar to the solo
bit at the start, while the rhythm guitar plays Am E D Dsus4 D.

Chords:-

 AmEDDsus4G
E----0-----0-----2-----3-----3-----|
B----1-----0-----3-----3-----0-----|
G----2-----1-----2-----2-----0-----|
D----2-----2-----0-----0-----0-----|
A----0-----2-----0-----0-----2-----|
E----0-----0-----x-----x-----3-----|


The ?h? symbol means hammer on.


Am D Dsus4 E G
variations - click chord images
Transpose chords:
Tuning:
Cool service:
View: Size:
A  A  A
Rating:
Layout:
  • Currently 3.6/5 Stars.
  • 1
  • 2
  • 3
  • 4
  • 5
 
Accuracy:
  • Currently 3.6/5 Stars.
  • 1
  • 2
  • 3
  • 4
  • 5
 
click stars to rate
Chordie recommends:
Get acoustic guitar lessons and electric guitar lessons at JamPlay.com
Songbook:
Login to add this song to your songbook
Support the artist
Preview/buy this song
MSN Music
Why this non-profit ad?

 
login to add comments/video/corrections