Force Field

Smash Mouth

 ABm/AGCadd9BECFB6
e|----------------------3---------------2------------------1-----4---------|
B|---2--------3---------3-------3-------4----------1-------1-----4---------|
G|---2--------4-------------------------4-----1------------2-----4---------|
D|---2--------4-----------------2-------4-----2----2-------3-----4---------|
A|----------------------2-------3-------------2----3-----------------------|
E|----------------------3--------------------------------------------------|


verse one:
e|-------------------------------------------------------------------------|
B|------66-66------44-44-----44-44-----22-22-------------------------------|
G|------77-77------55-55-----55-55-----33-33-------------------------------|
D|------88-88------44-44-----66-66-----44-44-------------------------------|
A|-------------------------------------------------------------------------|
E|-------------------------------------------------------------------------|

v^ v^ v^ v^ v^ v^ v^ v^ repeat til chorus..

chorus:

strum v v ^ ^v

 ABm/AGCadd9ABm/AGG

verse two:

e|-------------------------------------------------------------------------|
B|-------------------------------------------------------------------------|
G|-------------------------------------------------------------------------|
D|-------------------------------------------------------------------------|
A|--9-9----7-7----12-12-----1-1--------------------------------------------|
E|--7-7----5-5----10-10-----3-3--------------------------------------------|

x4

Bridge:
 BECFBECFB6
Verse three:

e|-------------------------------------------------------------------------|
B|------66-66------44-44-----44-44-----22-22-------------------------------|
G|------77-77------55-55-----55-55-----33-33-------------------------------|
D|------88-88------44-44-----66-66-----44-44-------------------------------|
A|-------------------------------------------------------------------------|
E|-------------------------------------------------------------------------|

v^ v^ v^ v^ v^ v^ v^ v^ repeat til chorus..

sorry can't figure out solo thingy its similar to the chords in verse 2 so just play around with them.
this is my 2nd tab.











A B B6 Bm/A C Cadd9 E F G
variations - click chord images
Transpose chords:
Tuning:
Cool service:
View: Size:
A  A  A
Rating:
Layout:
  • Currently 3/5 Stars.
  • 1
  • 2
  • 3
  • 4
  • 5
 
Accuracy:
  • Currently 3/5 Stars.
  • 1
  • 2
  • 3
  • 4
  • 5
 
click stars to rate
Chordie recommends:
Learn to play songs at Jamplay.com with video guitar lessons
Songbook:
Login to add this song to your songbook
Support the artist
Preview/buy this song
MSN Music
Why this non-profit ad?

 
login to add comments/video/corrections