eToCache5 = ""; ?> by Unknown - guitar chords, guitar tabs and lyrics - chordie
 Cadd9G/BEmCadd9G/BEm
E|--------------0----------------------------------0-----------------------|
B|--1-------3-----3--------------------1-------3-----3---------------------|
G|------0-----0---------0-------0----------0-----0---------0-------0-------|
D|----2---2-----------0-------2---2------2---2-----------0-------2---2-----|
A|--3---------------2-------2----------3---------------2-------2-----------|
E|------------------------0----------------------------------0-------------|


 Cadd9G/BEmAm
E|--------------0----------------------------------------------------------|
B|--1-------3-----3----------------------------1---------------1-----------|
G|------0-----0---------0-------0------2---2-----2---2-----2-----2---0-----|
D|----2---2-----------0-------2---2------2---------2-----2---------2-------|
A|--3---------------2-------2----------0-----0---------0-----0-------------|
E|------------------------0------------------------------------------------|


Verse 1:

 Cadd9G/BEmCadd9G/BEm
E|--------------0----------------------------------0-----------------------|
B|--1-------3-----3--------------------1-------3-----3---------------------|
G|------0-----0---------0-------0----------0-----0---------0-------0-------|
D|----2---2-----------0-------2---2------2---2-----------0-------2---2-----|
A|--3---------------2-------2----------3---------------2-------2-----------|
E|------------------------0----------------------------------0-------------|

You're an empty promise You're an easy chair
You're a secret noticed You're a mystery sky

 Cadd9G/BEmAm
E|--------------0----------------------------------------------------------|
B|--1-------3-----3----------------------------1---------------1-----------|
G|------0-----0---------0-------0------2---2-----2---2-----2-----2---0-----|
D|----2---2-----------0-------2---2------2---------2-----2---------2-------|
A|--3---------------2-------2----------0-----0---------0-----0-------------|
E|------------------------0------------------------------------------------|

You're the gods forces struck down somewhere
You're a wish floated up to the night.

Chorus:

 GCEmAmEm
E|-------------------------------------------------------------------------|
B|----------3---------------1------------------------------1---------------|
G|------0-----0---0-----0-----0---0--------0-----------2-----2---2---------|
D|----0---------0-----2---------2-------2----2---2---2---2-----2-------2---|
A|--------2---------3-----3-----------2---2----2---0-----------------2---2-|
E|--3-------------------------------0------------------------------0-------|

Medellia of my eyes you're the emptiness of I

 CDCG
E|-------------------------------------------------------------------------|
B|-----------------1-----------3-------3---1-------1---------------3-------|
G|-0-----------0-----0---0---2-------2---0-----0-----0---0-----0-----0---0-|
D|---2---2---2---------2---0-------0---------2---2-----2-----0---------0---|
A|-----2---3-----3-------------------------3---------------------2---------|
E|--------------------------------2------------------------3---------------|

You're the reason that I write And if you say you will

 BmAm
E|-----------------0-------------------------------------------------------|
B|---------3-------1-------------------------------------------------------|
G|-----4-----4---4-2-------------------------------------------------------|
D|---4---------4---2-------------------------------------------------------|
A|-2-----2---------0-------------------------------------------------------|
E|-------------------------------------0---------2-------3-----------------|

I would love you still And if I

Verse 2:

 Cadd9G/BEmCadd9G/BEm
E|--------------0----------------------------------0-----------------------|
B|--1-------3-----3--------------------1-------3-----3---------------------|
G|------0-----0---------0-------0----------0-----0---------0-------0-------|
D|----2---2-----------0-------2---2------2---2-----------0-------2---2-----|
A|--3---------------2-------2----------3---------------2-------2-----------|
E|------------------------0----------------------------------0-------------|

could I'd throw away this world I'd dress you all in
You're all I notice in a crowded room

 Cadd9G/BEmAm
E|--------------0----------------------------------------------------------|
B|--1-------3-----3----------------------------1---------------1-----------|
G|------0-----0---------0-------0------2---2-----2---2-----2-----2---0-----|
D|----2---2-----------0-------2---2------2---------2-----2---------2-------|
A|--3---------------2-------2----------0-----0---------0-----0-------------|
E|------------------------0------------------------------------------------|

pearls I'd give you all you wanted
You're vacant motives unmoved revealed

Chorus 2:

 GCEmAmEm
E|-------------------------------------------------------------------------|
B|----------3---------------1------------------------------1---------------|
G|------0-----0---0-----0-----0---0--------2-----------2-----2---2---------|
D|----0---------0-----2---------2-------2----2---2---2---2-----2-------2---|
A|--------2---------3-----3-----------2---2----2---0-----------------2---2-|
E|--3-------------------------------0------------------------------0-------|

Medellia of my eyes you're the emptiness of I

 CDCG
E|-------------------------------------------------------------------------|
B|-----------------1-----------3-------3---1-------1---------------3-------|
G|-0-----------0-----0---0---2-------2---0-----0-----0---0-----0-----0---0-|
D|---2---2---2---------2---0-------0---------2---2-----2-----0---------0---|
A|-----2---3-----3-------------------------3---------------------2---------|
E|--------------------------------2------------------------3---------------|

You're the reason that I drive And if you say you will

Bm Am Am(softly)
E|-----------------0-----------------------------------------0-------------|
B|---------3-------1-----------------------------------------1-------------|
G|-----4-----4---4-2-----------------------------------------2-------------|
D|---4---------4---2-----------------------------------------2-------------|
A|-2-----2---------0-----------------------------------------0-------------|
E|-------------------------------------0---------2-------3-----------------|

I would love you still And if I just

Verse 3:

 Cadd9G/BEmCadd9G/BEm
E|--------------0----------------------------------0-----------------------|
B|--1-------3-----3--------------------1-------3-----3---------------------|
G|------0-----0---------0-------0----------0-----0---------0-------0-------|
D|----2---2-----------0-------2---2------2---2-----------0-------2---2-----|
A|--3---------------2-------2----------3---------------2-------2-----------|
E|------------------------0----------------------------------0-------------|

could be anything for you just anyone at
You're the silly reasons in a goldfish laugh

 Cadd9G/BEmAmG
E|--------------0---------------------------------------------------------3|
B|--1-------3-----3----------------------------1---------------1----------3|
G|------0-----0---------0-------0------2---2-----2---2-----2-----2---0----0|
D|----2---2-----------0-------2---2------2---------2-----2---------2------0|
A|--3---------------2-------2----------0-----0---------0-----0------------2|
E|------------------------0-----------------------------------------------3|

all anything that mattered washed out
You're the ageless seasons at rest at last


Am Bm C Cadd9 D Em G G/B
variations - click chord images
Transpose chords:
Tuning:
Cool service:
View: Size:
A  A  A
Rating:
Layout:
  • Currently 1.5/5 Stars.
  • 1
  • 2
  • 3
  • 4
  • 5
 
Accuracy:
  • Currently 1.7/5 Stars.
  • 1
  • 2
  • 3
  • 4
  • 5
 
click stars to rate
Chordie recommends:
Check out JamPlay.com for online video guitar lessons
Songbook:
Login to add this song to your songbook
Support the artist
Preview/buy this song
MSN Music
Why this non-profit ad?

 
login to add comments/video/corrections