Chordie logo


Stumbleine   Smashing Pumpkins


E-| |-----------------------------------|--------------------------------|



B-|C|-5--------5--------6-------5-------|--------------------------------|



F-|A|-----0------0----------0-------0---|--------------------------------|



C-|P|---0----------0------0---0---0-----|-----0-----0---------0-------0--|



A-|O|-7-----7--------7--8-------7-----7-|---7-----7-----7---7-------5----|



E-| |-----------------------------------|-5-----5-----5---5-----0-3------|



E-| |--------------------------------------------------------------------|



B-|C|--------------------------------------------------------------------|



F-|A|--------------------------------------------------------------------|



C-|P|-----0-----0---------0-------0-------0-----0---------0-----0--------|



A-|O|---7-----7-----7---7-------5-------3-----3-----3---5-----5-----5----|



E-| |-5-----5-----5---5-----5-3-----0-1-----1-----1---3-----3-----3------|



E-| |------------------------------------------------*-------------------|



B-|C|------------------------------------------------*-------------------|



F-|A|------------------------------------------------*-------------------|



C-|P|-----0-----0---------0-----0----------0-----0---*----0-----0--------|



A-|O|---8-----8-----8---3-----3-----3----5-----5----5*--7-----7-----7----|



E-| |-6-----6-----6---1-----1-----1----3-----3----3--*5-----5-----5------|



E-| |--------------------------------------------------------------------|



B-|C|--------------------------------------------------------------------|



F-|A|--------------------------------------------------------------------|



C-|P|-----0-----0---------0-------0-------0-----0---------0-----0--------|



A-|O|---7-----7-----7---7-------5-------3-----3-----3---5-----5-----5----|



E-| |-5-----5-----5---5-----5-3-----0-1-----1-----1---3-----3-----3------|



E-| |--------------------------------------------------------------------|



B-|C|--------------------------------------------------------------------|



F-|A|-----------------------------------------------------0-----0--------|



C-|P|-----0-----0---------0-----0----------0-----0-----------------------|



A-|O|---8-----8-----8---3-----3-----3----5-----5----5---7-----7---7-/----|



E-| |-6-----6-----6---1-----1-----1----3-----3----3---5-----5-----5-/----|



E-| |-----------------------------------|---------------------------------|



B-|C|----------------------------------:|---------------------------------|



F-|A|----------------------0-----0------|-----0-----0--------0-----0------|



C-|P|------0-------0--------------------|---------------------------------|



A-|O|---10-------5-------3-----3---3-/-:|---8-----8-----8---3-----3---3---|



E-| |-8------0-3-----0-1-----1-----1-/--|-6-----6-----6---1-----1-----1---|



E-| |--------------------------------|



B-|C|--------------------------------|



F-|A|--------------------------------|



C-|P|-----------------------------0--|



A-|O|-7~~~----------------5~----5----|



E-| |-5~~~----------------3~--3------|



E-| |----------------------------------------------------------------0--|



B-|C|-5--------5--------6-------5------------------------------------0--|



F-|A|-----0------0----------0-------0--------------0---0-------------0--|



C-|P|---0----------0------0---0---0----------0---------------0-------0--|



A-|O|-7-----7--------7--8-------7-----7----7-----7---------7-------5----|



E-| |------------------------------------5-----5-----5---5-----5-3------|



Important: The song above is NOT stored on the Chordie server. The original song is hosted at www.guitaretab.com. Chordie works as a search engine and provides on-the-fly formatting. Chordie does not index songs against artists/composers will. To remove this song please click here.

This song is displayed as text-only. Transposing and tuning is only available for chordpro-songs.

Login - add to songbook

Rating click stars to rate

Layout
Accuracy

SHARE PAGE  




You need to log in to post comments