GC9EmG
e|------------------------------------|----------------------------------------|
B|--12-----12-----12-----12--10--8----|-8-----8----8------------0---0--0-------|
G|--0------0------0------0---0---0----|-5-----0----0---0----0---0---0--0-------|
D|--0------0------0-------------------|-------0--------x----x---0---0--0--0-0--|
G|--0-------------0-------------------|-------0--------9----9-------------0-0--|
E|------------------------------------|----------------------------------------|

 GC9Em
e|------------------------------------|----------------8--8--7----5------7--5--|
B|--12-----12-----12-----12--10--8----|---------8------------0----0--0---0--0--|
G|--0------0------0------0------------|---------0------------0----0--0---0--0--|
D|--0------0------0------0------------|---------x--------------------0---------|
G|--0------0------0------0------------|-5-------5------------------------------|
E|------------------------------------|----------------------------------------|


*If your band has got two guitarists let the other one play this riff while you play the
above
Gtr. 2
e|------------------------------------|----0-------0---------------------------|
B|--0-----0-------0----------1--0-----|-1----1--1------1-------------------0---|
G|-----------------------0------0-----|-------------------------0--------------|
D|-----------------------0------------|----------------------2-----------2----0|
A|------------------------------------|----------------------------------------|
E|------------------------------------|----------------------------------------|

* Guitar 2 is tuned normally

In this part the second guitarist plays the same. Let's call this part Riff B
 G
e|------------------------------------------------------------------------------|
B|--12-------------------12------------------12-------------------12-----10---8-|
G|--0--------------------0-------------------0--------------------0------0----0-|
D|--0------0--0---0------0-----0---0---0-----0----0---0---0---0---0------0----0-|
G|--0------0--0---0------0-----0---0---0-----0----0---0---0---0---0------0----0-|
E|------------------------------------------------------------------------------|

 C9Em
e|------------------------------------------------------------7-----------------|
B|--8------8--8---8------8-----8-----8--8--0------0--0--0-----8-----------------|
G|--0------0--0---0------0-----0-----0--0--0------0--0--0-----0-----------------|
D|--x------x--x---x------------------x--x--x------x--x--x-----x-----------------|
G|--5------5--5---5------------------5--5--9------9--9--9-----9-----------------|
E|------------------------------------------------------------------------------|


Verse 1:

*With Riff B and the Gtr.2 part

 GC9Em
 Sweet,Sweet,Sweet, sweet little ag - ony
 GC9Em
 I don't know just where you've been_____
 GC9Em
But I'll take, take, take all that you have for me
 C9Em
All that you have for me
 G
 In sin
 C9
Where are we go-ing? And they...

Chorus 1:*With Riff B and the Gtr.2 part again

 GC9Em
 All want you to change         And they

 G7C9Em7
 all want you to change         

Riff C:

e|----10------10------10------10------|----10-----10-----10-----10-----10------|
B|--12------12------12------12--------|--12-----12-----12-----12-----12--------|
G|10------10------10------10----------|-9------9------0------0------0----------|
D|------------------------------------|----------------------------------------|
A|------------------------------------|----------------------------------------|
E|------------------------------------|----------------------------------------|


Verse 2: *with Riff C

Enjoy !


C9 Em Em7 G G7
variations - click chord images
Transpose chords:
Tuning:
Cool service:
View: Size:
A  A  A
Rating:
Layout:
  • Currently 1.5/5 Stars.
  • 1
  • 2
  • 3
  • 4
  • 5
 
Accuracy:
  • Currently 1.2/5 Stars.
  • 1
  • 2
  • 3
  • 4
  • 5
 
click stars to rate
Chordie recommends:
Check out JamPlay.com for online video guitar lessons
Songbook:
Login to add this song to your songbook
Support the artist
Preview/buy this song
MSN Music
Why this non-profit ad?

 
login to add comments/video/corrections