Guitar Tabs, Chords and Lyrics


Galapagos  Smashing Pumpkins

Ain't it...
eb|---0---------0---------9----------9-------|eb
Bb|-----10--------10--------10---------10----|Bb
Gb|--------11--------11--------11---------11-|Gb
Db|-0---------0---------0----------0---------|Db (x2)
Ab|------------------------------------------|Ab
Eb|------------------------------------------|Eb
eb|-7-----7---------10/7--------7-----|eb
Bb|---8-----8---8-----------8-------8-|Bb
Gb|----------------------9--------9---|Gb
Db|-0---0-----0---0-----------0-------|Db
Ab|-----------------------------------|Ab
Eb|-----------------------------------|Eb

ARPEGGIO 2
         [Dsus2/B]                [Daddd9]                 [Em7]                [G]                           
eb|-------------------------------------------------------------------|eb
Bb|---------3---------------10---------------0----------------8-------|Bb
Gb|-----2-----2---2-----9------9---9-----7-----7---7------7-----7---7-|Gb
Db|---0---0-----0-----0---0------0-----0---0-----0------0---0-----0---|Db
Ab|-2---------------9----------------7---------------10---------------|Ab
Eb|-------------------------------------------------------------------|Eb

VERSE 1
Ain't it funny how we pretend we're still a child?
Softly stolen under our blanket [F#m/5+]skies
[Dsus2/B]         [Dadd9]       [Em7]     [G]And rescue me from [Dsus2/B]me[Dadd9]
[Em7]And all that I [G]believe
[Dsus2/B]I...     [Dadd9]won't deny the [Em7]pain[G]
[Dsus2/B]I...     [Dadd9]won't deny the [Em7]change
And [G]should I fall from [Dsus2/B]grace... [Dadd9]here with [Em7]you?
[G]  Will you leave me too?
REPEAT INTRO
VERSE 2
Carve out your heart for keeps in an old oak [F#m/5+]tree
F#m/D F#m7/5+ G6 G6* F#m/5+
And hold... me for goodbyes and whispered lullabyes
[Dsus2/B]         [Dadd9]       [Em7]     [G]And tell me I am [Dsus2/B]still[Dadd9]
[Em7]The man I'm supposed to [G]be
[Dsus2/B]I...     [Dadd9]won't deny the [Em7]pain[G]
[Dsus2/B]I...     [Dadd9]won't deny the [Em7]change
And [G]should I fall from [Dsus2/B]grace... [Dadd9]here with [Em7]you?
[G]  Will you leave me [Em7]too? [G]  Will you leave me too?
INTERLUDE
eb|------------------------------------|eb
Bb|---17/15-----------12/10--------7/8-|Bb
Gb|-----------14/12----------9/7-------|Gb
Db|-0-------0-------0------0-----0-----|Db (x4)
Ab|------------------------------------|Ab
Eb|------------------------------------|Eb
eb|-------------------------2------|eb
Bb|---0-----0---------0-------0----|Bb
Gb|-----2-----2---2-----0--------0-|Gb
Db|-4-----4-----4---2-----2----2---|Db (x3)
Ab|--------------------------------|Ab
Eb|--------------------------------|Eb

VERSE 3
[Dsus2]  Too late to turn back [A]now
I'm running out of [G]sound
And I am [Gm]changing, [Cadd9]changing
[Dsus2]  And if we died right [A]now
This fool you love some[G]how
Is here with [Gm]you
[Dsus2/B]I...     [Dadd9]won't deny the [Em7]pain[G]
[Dsus2/B]I...     [Dadd9]won't deny the [Em7]change
And [G]should I fall from [Dsus2/B]grace... [Dadd9]here with [Em7]you?
[G]  Will you leave me [Em7]too? [G]  Will you leave me too?
REPEAT INTRO (End on F#m/5+)

Important: The song above is NOT stored on the Chordie server. The original song is hosted at www.guitaretab.com. Chordie works as a search engine and provides on-the-fly formatting. Chordie does not index songs against artists'/composers' will. To remove this song please click here.

Text color:
Chord color:
Chord grids: 
Font size:    
Page size: 

A Cadd9 Dadd9 Daddd9 Dsus2 Dsus2/B Em7 G Gm
variations - click chord images

Login - add to songbook

Transpose chords

Tuning

Rating click stars to rate

Layout
Accuracy

SHARE PAGE  




You need to log in to post comments