Guitar Tabs, Chords and Lyrics


Californias Lonely   Smile Empty Soul



Tuning: Db Ab Db Gb Bb eb

Intro
|---------------------------------|
|---------------------------------|
|---11-11--10--11---11-11--10--11-|
|---------------------------------|
|-9---------------9---------------|
|---------------------------------|

Verse
|--------------------------------|
|--------------------------------|
|-------------------11-11--11-11-|
|------11--11-11-----------------|
|----------------9-----------9---|
|-9--9-------9-------------------|

Why i'm never happy...
|---------------------|
|---------------------|
|---------------------|
|-11--11-11--11-11-11-|
|-11--11-11--11-11-11-|
|--9---9--9---9--9--9-|

Chorus/Bridge
|---------------------------------------------------------------------------------|
|---------------------------------------------------------------------------------|
|---------------------------------------------------------------------------------|
|-12--12-12--12-12-12-11--11-11--11-11-11-10--10-10--10-10-10-10--10-10--10-10-10-|
|-12--12-12--12-12-12-11--11-11--11-11-11-10--10-10--10-10-10-10--10-10--10-10-10-|


Important: The song above is NOT stored on the Chordie server. The original song is hosted at www.guitaretab.com. Chordie works as a search engine and provides on-the-fly formatting. Chordie does not index songs against artists/composers will. To remove this song please click here.

This song is displayed as text-only. Transposing and tuning is only available for chordpro-songs.

Login - add to songbook

Rating click stars to rate

Layout
Accuracy

SHARE PAGE  




You need to log in to post comments