Chordie logo


Fight Of A Suburban Couple   Smile Empty Soul



Mute (.)
slide up (/)
slide down (\)


intro (1x)
eb----------------------------------------|
bb----------------------------------------|
gb------0------(0)--------0------0--------|
db----0-----(0)---------0------0-----(0)--|
ab--7----(7)---------\2------3----(3)-----|
Eb----------------------------------------|

verse (5x)                                   last time 1x
eb----------------------------------------|  |-------------|
bb----------------------------------------|  |-------------|
gb------0-------(0)------0------0---------|  |------0------|
db----0------(0)-------0------0------(0)--|  |----0---0----| 
ab--------(7)-------\2------3-----(3)-----|  |--3-------3--|
Eb--5-------------------------------------|  |-------------|
                                              dont do the (3)(0)...

chorus (4x)                                       end on 
eb---------------------------------------------| |----|
bb---------------------------------------------| |----|
gb---------------------------------------------| |----|
db-----2-------2-----------9-------10----10----| |--2-|
ab-----2-------2-----------9-------10----10----| |--2-|
Eb-2-2-2-2-2-2-2-2-2-2/9-9-9/10 10 10-10-10----| |--2-|
   . .   . . .   . . . . .    .  .     .

post chorus (2x)
eb-----------------------------------------|
bb-----------------------------------------|
gb------0------(0)-------0------0----------|
db----0-----(0)--------0------0-----(0)----|
ab-/7----(7)--------\2------3----(3)-------|
Eb-----------------------------------------|


verse (3x)


chorus (4x)


outro (4x)                        end on...
eb---------------------------|   |-----|
bb---------------------------|   |-----|
gb--------0------0000-0000---|   |--0--|
db--2-----0------0000-0000---|   |--0--|
ab--2-----7------2222-3333---|   |--7--|
Eb--2------------------------|   |-----|




Important: The song above is NOT stored on the Chordie server. The original song is hosted at www.guitaretab.com. Chordie works as a search engine and provides on-the-fly formatting. Chordie does not index songs against artists/composers will. To remove this song please click here.

This song is displayed as text-only. Transposing and tuning is only available for chordpro-songs.

Login - add to songbook

Rating click stars to rate

Layout
Accuracy

SHARE PAGE  




You need to log in to post comments