Guitar Tabs, Chords and Lyrics


Song In B   Snot Rockets



YOU/LOOKIN AT ME
LOOKIN AT YOU/YEAH
WHAT DO YOU SEE/WOULD YOU APPROVE
OF ME AND YOU/OF ME AND YOU
I/DON'T WANAN SAY/YOUR RUNNIN AWAY
HAD IT TO HERE/TIRED OF COMPLAINTS
WHAT DO YOU SAY/WHAT DO YOU SAY

CHORUS:
AHHHHH-I DON'T CARE(2X)

I'M/COMING AROUND/DON'T BE PUTTIN ME DOWN
SMASHIN GLASS/I'M LOVIN TAHT SOUND
DON'T TURN AROUND/DON'T TURN AROUND
YOU/LOOKIN AT ME/YOU WANNA FIT IN
WHO WOULD YOU BE/IF YOU CAN'T BE YOU
WHO WOULD YOU BE/WHO WOULD YOU BE



VERSE MUSIC:
e-----------------------------------------------
b-----------------------------------------------
g-----------------------------------------------
d-----9--8---------9--8-----9--8----------------
a--9--7--6---9--9--7--6--9--7--6--9-------------
E--7---------7--7--------7--------7-------------




CHORUS:

AHHHHHH I DON'T CARE(STRUM THE "A" POWER CHORD UNTIL AFTER HE SINGS "CARE")


e------------------------------------------------
b------------------------------------------------
g------------------------------------------------
d------------------------------------------------
a----7-------------------------------------------


Important: The song above is NOT stored on the Chordie server. The original song is hosted at www.guitaretab.com. Chordie works as a search engine and provides on-the-fly formatting. Chordie does not index songs against artists'/composers' will. To remove this song please click here.

This song is displayed as text-only. Transposing and tuning is only available for chordpro-songs.

Login - add to songbook

Rating click stars to rate

Layout
Accuracy

SHARE PAGE  




You need to log in to post comments