In Loving Memory Of

So They Say


SONG: In Loving Memory Of… ARTIST: So They Say ALBUM: Antidote For Irony TUNING: Half Step Down
IM SURE A LOT OF THIS IS CORRECT I haven't tabbed out the strumming but listen to the song and you will get it. during bridge there is a solo and im not sure how it goes. There Are Two Guitars In This Song Possibly a third one used in the recording but ive Tabbed it out for just one guitar if there are any comments or suggestions email me at Blackoutskies_rules@hotmail.com
INTRO Guitar One
|----------3------------------------| |--0---1---1------------------------| |--2---2---2----4---2---0---2---4---| |--2---2---2----5---3---3---3---5---| |---------------5---3---3---3---5---| |---------------3---1---1---1---3---|
|----------3------------------------| |--0---1---1------------------------| |--2---2---2----4---2---0---2---4---| |--2---2---2----5---3---3---3---5---| |---------------5---3---3---3---5---| |---------------3---1---1---1---3---|
VERSE ONE
|----------------| |----------------| |-----5----------| |-7---5---3---5--| |-7---3---3---5--| |-5-------1---3--|
|----------------| |----------------| |-----5----------| |-7---5---3---5--| |-7---3---3---5--| |-5-------1---3--|
INTRO CHORUS:
|--------| |--------| |--------| |-3---5--| |-3---5--| |-1---3--|
VERSE TWO:
|----------------| |----------------| |-----5----------| |-7---5---3---5--| |-7---3---3---5--| |-5-------1---3--|
|----------------| |----------------| |-----5----------| |-7---5---3---5--| |-7---3---3---5--| |-5-------1---3--|
INTRO CHORUS
|---------| |---------| |---------| |-3----5--| |-3----5--| |-1----3--|
CHORUS:
|-----------------------------------------0-5----------| |-------------------0—12h-13p-12-8---------------------|
|-------------------2----------------------------------| |-3---5---3---5---2------------------------------------| |-3---5---3---5----------------------------------------| |-1---3---1---3----------------------------------------|
VERSE THREE:
|------------------| |------------------| |-5---7------------| |-5---7---3---5----| |-3---5---3---5----| |---------1---3----|
INTRO CHORUS
|--------| |--------| |--------| |-3---5--| |-3---5--| |-1---3--|
CHORUS:
|--------------------------| |-------------------0------| |-------------------2------| |-3---5---3---5-----2------| |-3---5---3---5------------| |-1---3---1---3------------|
|----------3------------------------| |--0---1---1------------------------| |--2---2---2----4---2---0---2---4---| |--2---2---2----5---3---3---3---5---| |---------------5---3---3---3---5---| |---------------3---1---1---1---3---|
BREAK DOWN:
|-----------------------------------------------| |-----------------------------------------------| |-5-------5-------------------------------------| |-5---3---5---3---5-----------------------------| |-3---3---3---3---5-----------------------------| |-----1-------1--3—XXXXX- Pick Slide------------|
CHORUS
|---------------------------| |-------------------0-------| |-------------------2-------| |-3---5---3---5-----2-------| |-3---5---3---5-------------| |-1---3---1---3-------------|
|----------3------------------------| |--0---1---1------------------------| |--2---2---2----4---2---0---2---4---| |--2---2---2----5---3---3---3---5---| |---------------5---3---3---3---5---| |---------------3---1---1---1---3---|
|----------3------------------------| |--0---1---1------------------------| |--2---2---2----4---2---0---2---4---| |--2---2---2----5---3---3---3---5---| |---------------5---3---3---3---5---| |---------------3---1---1---1---3---|
|----------3-------------------------| |--0---1---1-------------------------| |--2---2---2----4---2---0---2---4----| |--2---2---2----5---3---3---3---5----| |---------------5---3---3---3---5----| |---------------3---1---1---1---3----|
End On:
|------| |--0---| |--2---| |--2---| |------| |------|








variations - click chord images
Transpose chords:
Tuning:
Cool service:
View: Size:
A  A  A
Rating:
Layout:
  • Currently 0/5 Stars.
  • 1
  • 2
  • 3
  • 4
  • 5
 
Accuracy:
  • Currently 2.8/5 Stars.
  • 1
  • 2
  • 3
  • 4
  • 5
 
click stars to rate
Chordie recommends:
Learn how to play guitar at JamPlay.com
Songbook:
Login to add this song to your songbook
Support the artist
Preview/buy this song
MSN Music
Why this non-profit ad?

 
login to add comments/video/corrections