Chordie logo


In Loving Memory Of   So They Say



SONG:  In Loving Memory Of…
ARTIST: So They Say
ALBUM:  Antidote For Irony
TUNING: Half Step Down

IM SURE A LOT OF THIS IS CORRECT
I haven’t tabbed out the strumming but listen to the song and you will get it. during 
bridge there is a solo and im not sure how it goes.
There Are Two Guitars In This Song Possibly a third one used in the recording but ive
Tabbed it out for just one guitar if there are any comments or suggestions email me at
Blackoutskies_rules@hotmail.com

INTRO
Guitar One

|----------3------------------------|
|--0---1---1------------------------|
|--2---2---2----4---2---0---2---4---|
|--2---2---2----5---3---3---3---5---|
|---------------5---3---3---3---5---|
|---------------3---1---1---1---3---|

|----------3------------------------|
|--0---1---1------------------------|
|--2---2---2----4---2---0---2---4---|
|--2---2---2----5---3---3---3---5---|
|---------------5---3---3---3---5---|
|---------------3---1---1---1---3---|

VERSE ONE

|----------------|
|----------------|
|-----5----------|
|-7---5---3---5--|
|-7---3---3---5--|
|-5-------1---3--|

|----------------|
|----------------|
|-----5----------|
|-7---5---3---5--|
|-7---3---3---5--|
|-5-------1---3--|


INTRO CHORUS:

|--------|
|--------|
|--------|
|-3---5--|
|-3---5--|
|-1---3--|


VERSE TWO:

|----------------|
|----------------|
|-----5----------|
|-7---5---3---5--|
|-7---3---3---5--|
|-5-------1---3--|

|----------------|
|----------------|
|-----5----------|
|-7---5---3---5--|
|-7---3---3---5--|
|-5-------1---3--|

INTRO CHORUS

|---------|
|---------|
|---------|
|-3----5--|
|-3----5--|
|-1----3--|

CHORUS:

|-----------------------------------------0-5----------|
|-------------------0—12h-13p-12-8---------------------|
|-------------------2----------------------------------|
|-3---5---3---5---2------------------------------------|
|-3---5---3---5----------------------------------------|
|-1---3---1---3----------------------------------------|

VERSE THREE:

|------------------|
|------------------|
|-5---7------------|
|-5---7---3---5----|
|-3---5---3---5----|
|---------1---3----|

INTRO CHORUS

|--------|
|--------|
|--------|
|-3---5--|
|-3---5--|
|-1---3--|


CHORUS:

|--------------------------|
|-------------------0------|
|-------------------2------|
|-3---5---3---5-----2------|
|-3---5---3---5------------|
|-1---3---1---3------------|

|----------3------------------------|
|--0---1---1------------------------|
|--2---2---2----4---2---0---2---4---|
|--2---2---2----5---3---3---3---5---|
|---------------5---3---3---3---5---|
|---------------3---1---1---1---3---|

BREAK DOWN:

|-----------------------------------------------|
|-----------------------------------------------|
|-5-------5-------------------------------------|
|-5---3---5---3---5-----------------------------|
|-3---3---3---3---5-----------------------------|
|-----1-------1--3—XXXXX- Pick Slide------------|

CHORUS

|---------------------------|
|-------------------0-------|
|-------------------2-------|
|-3---5---3---5-----2-------|
|-3---5---3---5-------------|
|-1---3---1---3-------------|

|----------3------------------------|
|--0---1---1------------------------|
|--2---2---2----4---2---0---2---4---|
|--2---2---2----5---3---3---3---5---|
|---------------5---3---3---3---5---|
|---------------3---1---1---1---3---|

|----------3------------------------|
|--0---1---1------------------------|
|--2---2---2----4---2---0---2---4---|
|--2---2---2----5---3---3---3---5---|
|---------------5---3---3---3---5---|
|---------------3---1---1---1---3---|

|----------3-------------------------|
|--0---1---1-------------------------|
|--2---2---2----4---2---0---2---4----|
|--2---2---2----5---3---3---3---5----|
|---------------5---3---3---3---5----|
|---------------3---1---1---1---3----|

End On:

|------|
|--0---|
|--2---|
|--2---|
|------|


Important: The song above is NOT stored on the Chordie server. The original song is hosted at www.guitaretab.com. Chordie works as a search engine and provides on-the-fly formatting. Chordie does not index songs against artists/composers will. To remove this song please click here.

This song is displayed as text-only. Transposing and tuning is only available for chordpro-songs.

Login - add to songbook

Rating click stars to rate

Layout
Accuracy

SHARE PAGE  




You need to log in to post comments