Guitar Tabs, Chords and Lyrics


Black 7   Soil



Soil
Black 7

Tabbed by:Joe p
Email:

Tuning:drop D two steps down

  Clean
e|-------------------------------------------------------------------------|
B|-------------------------------------------------------------------------|
G|-10-10-10-10--9-9-9-9--6-6-6-6--7-7-7-7----------------------------------| 
D|-10-10-10-10--9-9-9-9--6-6-6-6--7-7-7-7----------------------------------|
A|--8--8--8--8--7-7-7-7--4-4-4-4--5-5-5-5----------------------------------|
E|-------------------------------------------------------------------------|


 Distorted
Guitar 1
e|-------------------------------------------------------------------------|
B|-------------------------------------------------------------------------|
G|-10-10-10-10--9-9-9-9--6-6-6-6--7-7-7-7----------------------------------|
D|-10-10-10-10--9-9-9-9--6-6-6-6--7-7-7-7----------------------------------|
A|--8--8--8--8--7-7-7-7--4-4-4-4--5-5-5-5----------------------------------|
E|-------------------------------------------------------------------------|

Guitar 2
e|-------------------------------------------------------------------------|
B|-------------------------------------------------------------------------|
G|-------------------------------------------------------------------------|
D|0000--0000--0000--0000--0000--0000---------------------------------------|
A|0000--0000--0000--0000--0000--0000---------------------------------------|
E|0000--0000--0000--0000--0000--0000---------------------------------------|


verse
e|-------------------------------------------------------------------------|
B|-------------------------------------------------------------------------|
G|-10-10-10-10--9-9-9-9--6-6-6-6--7-7-7-7----------------------------------|
D|-10-10-10-10--9-9-9-9--6-6-6-6--7-7-7-7----------------------------------|
A|--8--8--8--8--7-7-7-7--4-4-4-4--5-5-5-5----------------------------------|
E|-------------------------------------------------------------------------|
  ..................PM...................

pre chorus
e|-------------------------------------------------------------------------|
B|-------------------------------------------------------------------------|
G|----10-9-----7-6---------10-9-----7-6------------------------------------|
D|-00-10-9-00--7-6------00-10-9-00--7-6------------------------------------| 
A|-00--8-7-00--5-4------00--8-7-00--5-4------------------------------------|
E|-00------00-----------00------00-------------00--2h3p2p0-----------------|


Chorus
e|-------------------------------------------------------------------------|
B|-------------------------------------------------------------------------|
G|--7-7-7-7--10--9-9-9-9--10--7-7-7-7--10-9-10-12--------------------------|
D|--7-7-7-7--10--9-9-9-9--10--7-7-7-7--10-9-10-12--------------------------|
A|--5-5-5-5---8--7-7-7-7---8--5-5-5-5---8-7--8-10--------------------------|
E|-------------------------------------------------------------------------|



Then just repeat the parts of the song as they come along



| /  slide up
| \  slide down
| h  hammer-on
| p  pull-off
| ~  vibrato
| +  harmonic
| x  Mute note


Important: The song above is NOT stored on the Chordie server. The original song is hosted at www.guitaretab.com. Chordie works as a search engine and provides on-the-fly formatting. Chordie does not index songs against artists/composers will. To remove this song please click here.

This song is displayed as text-only. Transposing and tuning is only available for chordpro-songs.

Login - add to songbook

Rating click stars to rate

Layout
Accuracy

Jango Player

SHARE PAGE  




You need to log in to post comments