Guitar Tabs, Chords and Lyrics


Asleep At The Wheel   Something For Kate



Written by Something For Kate.
Published by Mushroom Music Publishing
Tuning: Standard (CAPO ON 3RD FRET)

------------------------------------------------
These chords are not what Paul plays on the
album, but they sound like the song. I haven't
put any strumming patterns on here.
------------------------------------------------
Some of the chords in this song you could play
a couple of different ways, so I've just written
what sounds best on my guitar. I'm welcome to
any corrections.
------------------------------------------------
All chords are assuming you have the capo on.
------------------------------------------------

Intro: (X4)
e|0-0-0-0
B|0-0-0-0
G|2-0-2-0
D|2-2-2-2
A|2-2-2-2
E|0-0-0-0
------------------------------------------------
Verse: (X3)
e|0--0--0--X--0
B|0--0--0--0--0
G|0--2--0--0--2
D|2--2--2--0--1
A|2--0--3--2--2
E|0--X--X--3--X

Then play the Intro again when he sings
"and every light on your street, comes
back to me"
------------------------------------------------
Chorus:
(this part once)
e|0--0--0--X--0
B|0--0--0--0--0
G|0--2--0--0--2
D|2--2--2--0--1
A|2--0--3--2--2
E|0--X--X--3--X

(this part is faster, x2)
e|0--X--0--0
B|1--0--1--0
G|0--0--2--0
D|2--0--2--2
A|3--2--0--2
E|X--3--X--0

and then...
e|0--X--0--0--0--0
B|1--0--3--2--1--3
G|0--0--0--0--0--2
D|2--0--2--2--2--0
A|3--2--0--0--3--X
E|X--3--X--X--X--2

After all this you play the Intro again
------------------------------------------------
Verse:
(this part twice)
e|0--0--0--X--0
B|0--0--0--0--0
G|0--2--0--0--2
D|2--2--2--0--1
A|2--0--3--2--2
E|0--X--X--3--X

and then this, when he sings "they're going nowhere"
e|0----0
B|1----3
G|2----2
D|2----0
A|0----X
E|X----2
------------------------------------------------
Chorus:
(this part once)
e|0--0--0--X--0
B|0--0--0--0--0
G|0--2--0--0--2
D|2--2--2--0--1
A|2--0--3--2--2
E|0--X--X--3--X

(this part is faster, x2)
e|0--X--0--0
B|1--0--1--0
G|0--0--2--0
D|2--0--2--2
A|3--2--0--2
E|X--3--X--0

and then...
e|0--X--0--0--0--0
B|1--0--3--2--1--3
G|0--0--0--0--0--2
D|2--0--2--2--2--0
A|3--2--0--0--3--X
E|X--3--X--X--X--2
------------------------------------------------
Bridge: (X2, on the second time stay on the A
at the end a little bit longer)
e|X---X-X---X-0---X---X--X--0
B|1---0-3---0-0---0---1--0--2
G|0---0-0---0-0---0---0--0--2
D|2---0-2---0-2---0---2--0--2
A|3---2-3---2-2---2---3--2--0
E|X---3-X---3-0---3---X--X--X
------------------------------------------------
Chorus: (with ooh and aah vocals)
(this part TWICE)
e|0--0--0--X--0
B|0--0--0--0--0
G|0--2--0--0--2
D|2--2--2--0--1
A|2--0--3--2--2
E|0--X--X--3--X

(this part is faster, x2)
e|0--X--0--0
B|1--0--1--0
G|0--0--2--0
D|2--0--2--2
A|3--2--0--2
E|X--3--X--0

then this, slightly shorter...
e|0--X--0--0
B|1--0--3--2
G|0--0--0--0
D|2--0--2--2
A|3--2--0--0
E|X--3--X--X

(here's your fast part again, x2)
e|0--X--0--0
B|1--0--1--0
G|0--0--2--0
D|2--0--2--2
A|3--2--0--2
E|X--3--X--0

and then...
e|0--X--0--0--0--0
B|1--0--3--2--1--3
G|0--0--0--0--0--2
D|2--0--2--2--2--0
A|3--2--0--0--3--X
E|X--3--X--X--X--2
------------------------------------------------
Outro:
just play your intro again
------------------------------------------------



Important: The song above is NOT stored on the Chordie server. The original song is hosted at www.guitaretab.com. Chordie works as a search engine and provides on-the-fly formatting. Chordie does not index songs against artists'/composers' will. To remove this song please click here.

This song is displayed as text-only. Transposing and tuning is only available for chordpro-songs.

Login - add to songbook

Rating click stars to rate

Layout
Accuracy

SHARE PAGE  




You need to log in to post comments