A Puro Dolor

Son By Four

Son By Four/A puro dolor – Transcribed by Avishay Zawoznik
Including chords & guitar fills.

Opening:
e-------------------------------------------------------------
B-5--8-8-8-6-5h6p5--------------------------------------------
G-------------------7-5-----5-7-/9-7-5------5-5------5-5------
D-------------------------7-------------5-7------7-5------3-3-
A-------------------------------------------------------------
E-------------------------------------------------------------
e-------------------------
B------5-/6-5-------------
G--5-7--------7h9p7-5-----
D-------------------------
A-------------------------
E-------------------------

 CGAm
Perdona si te estoy llamando en este momento

 EmF
pero me hacia falta escuchar de nuevo

 CG
aunque sea un instante tu respiracion

e---------------------------
B----------5-7-8------------
G---4-5-7-------------------
D-7-------------------------
A---------------------------
E---------------------------


 CG
 Disculpa se que estoy violando

 Am
nuestro juramento

 EmF
Se que estas con alguien, que no es el momento

 CG
pero hay algo urgente que decirte hoy

Pre-Chorus:

 AmEmFG
 Estoy muriendo, muriendo por verte    

 AmEmFG
 Agonizando, muy lento y muy fuerte    

Coro:

 CGAm
 Vida, devuelme mi fantasia

 EmF
 mis ganas de vivir la vida

 CG
 devuelvme el aire...

 CGAm
 Carino mio, sin ti yo me siento vacio

 EmF
 las tardes son un laberinto

 CG
 y las noches me saben

 FC
 a puro dolor...

(1:17)
e------------------------------------------------
B-5-/8-8-8-6-5h6p5-------------------------------
G-------------------7-5-----5-7-/9-7-5------7-7--
D-----------------------7-7-------------5-7------
A------------------------------------------------
E------------------------------------------------
e--------------------------------
B-----------5-8-6h8p6-5----------
G-----4-5-7-------------7h9p7-5--
D-5-7----------------------------
A--------------------------------
E--------------------------------


Quisiera decirte que hoy estoy de marvilla

que no me ha afectado lo de tu partida pero con un dedo no se tapa el sol

e------------------
B----------5-7-8---
G---4-5-7----------
D-7----------------
A------------------
E------------------


estoy muriendo.........

…A puro dolor

(2:21)
e--------------------7-8-8-7-7------------------------------------
B—4/5-8---------8-10-----------10-8-8-6-6-5-5--------------------
G-------7-5-----------------------------------5-------------------
D-----------------------------------------------------------------
A-----------------------------------------------------------------
E-----------------------------------------------------------------


e-------------____---------------____-------------------------
B----|\---|--/----\------|--|--\--|---------/\------------------
G----|-\--|--|----|------|--|---\-|____----/__------------------
D----|--\-|--|----|------|--|---|-|-------/----\----------------
A----|---\|--\____/------|--|___/-|____--/------\---------------
E-------------------------------------------------------------


If anyone can find out how to play this part I'll thank him very much

That's All Folks, if Anything's wrong or you know the electric guitar fast-part Email me at eduirdo@netvision.net.il.
Bye,
Avishay
:: Ultimate Guitar Archive ::
http://www.ultimate-guitar.com


Am C Em F G
variations - click chord images
Transpose chords:
Tuning:
Cool service:
View: Size:
A  A  A
Rating:
Layout:
  • Currently 3.1/5 Stars.
  • 1
  • 2
  • 3
  • 4
  • 5
 
Accuracy:
  • Currently 2.9/5 Stars.
  • 1
  • 2
  • 3
  • 4
  • 5
 
click stars to rate
Chordie recommends:
Get acoustic guitar lessons and electric guitar lessons at JamPlay.com
Songbook:
Login to add this song to your songbook
Support the artist
Preview/buy this song
MSN Music
Why this non-profit ad?

 
login to add comments/video/corrections