Chordie logo


Mackin For Doober   Sonic Youth







Mackin for Doober
By-Sonic Youth

key-
X=mute and strum

intro-3X

|-------------------------|
|-------------------------|
|-------------------------|
|----------0-0------------|
|-2-2-2-2-----0-00--------|
|-------------------------|

main riff -3X

|------------------------------------------|
|-------------0-0--------------------------|
|-0-0-0-0----7-7-0--0-0--------------------|
|-0-0-0-0----7-7-7--7-7--------------------|
|-9-9-9-9XX--5-5-7--7-7--------------------|
|-7-7-7-7XX------5--5-5--------------------|

RIFF 2 (after main riff) -

|----------------------------------------|
|-------0-------M--R---------------------|
|-0-0XX-7-0-0---A--I---------------------|
|-4-7XX-7-9-9---I---F--------------------|
|-4-7XX-5-9-9---N---F--------------------|
|-2-5XX---7-7----------------------------|


If you have MADE IN USA then you know most of the REAL songs (which are very few) sound like variations of 
song was the best one i could hear.This song is very rocklike and cheezy, though it fits Sonic Youth's 
of music,except for the fucked  up tunings.



Important: The song above is NOT stored on the Chordie server. The original song is hosted at www.guitaretab.com. Chordie works as a search engine and provides on-the-fly formatting. Chordie does not index songs against artists/composers will. To remove this song please click here.

This song is displayed as text-only. Transposing and tuning is only available for chordpro-songs.

Login - add to songbook

Rating click stars to rate

Layout
Accuracy

SHARE PAGE  




You need to log in to post comments