"yes"; ?> Ek Baar Tujhko Dekha by Sonu Nigam - guitar chords, guitar tabs and lyrics - chordie

Ek Baar Tujhko Dekha

Sonu Nigam

 GDGDGEm
                                     Tera khayal mere dil se ja nahi sakta

 DG
Tamam umar mein tujhko Bhula nahi sakta, bhula nahi sakta

 GEm
Ru ru ru, tu ru ru ru ru ru ru ru
 D#
Tu ru ru ru ru ru ru ru

 Aaja
Verse
 GAm
 Ek baar tujhko dekha
 CD
Phir dekhun yeh dil kahe

 G
 GAm
Hmm ek baar tujhko dekha

 CD
Phir dekhun yeh dil kahe

 GAm
Ab mein jaha bhi jaun

 CD
teri justaju rahe

Chorus
 GEm
Deewana kiya hain teri yaadon ne

 D#G
 Tu aake zara dekh le, aaja

 G
Deewana (deewana)

 Em
Kiya hain teri yaadon ne (yaadon ne)

 D#
 Tu aake zara dekh le (dekh le)

 Aajaaaja
 DF
Mera tasavur meri deewangi tu hi to hain
 C
Kash tujhe khabar hoti
 Am
Yeh zindagi tujh bin har lamha
 Asus
Mujhtadpaati hain
 Asus4
Meikya karu ?
 DG
Zindagi se bhaag kar kaha jau ?

Tera pata bhi to nahi

Stanza1

 GEm
Ashaon ka banke darpan

 CD
Tune badla mera jeevan

 GEm
Anjaane mein jod di maine

 CD
Tujhse apne dil ki dhadkan

 GEm
Aai hain yaad phir tu
 DG
 Phir hosh kho gaya

 GEm
Phir dil machal machal ke
 DG
Betaab ho gaya

Chorus (same chords)
Hooo deewana kiya hain teri yaadon ne
Tu aake zara dekh le, aaja

Deewana (deewana)
Kiya hain teri yaadon ne (yaadon ne)
Tu aake zara dekh le (dekh le)
 Aajaaaja
Solo

e|--10b11r-10v------------10-------------------------------|
B|-----------------11----------13-----12h13p12v------------|
G|--------------------12-----------------------------------|
D|---------------------------------------------------------|
A|---------------------------------------------------------|
E|---------------------------------------------------------|
e|--10b11r-10v------------13v---11v----11—10v--------------|
B|-----------------11--------------------------------------|
G|--------------------12-----------------------------------|
D|---------------------------------------------------------|
A|---------------------------------------------------------|
E|---------------------------------------------------------|


Then G Em D Am C D

Then G D
 GD

Stanza 2
Ab tak maine khwaab jo dekhe
Un khwaabon ki chaahat hai tu
Lagta hain kyo aisa mujhko
Dil ki pehli hasrat hai tu
Yeh meri bekaraari yeh meri bekhudi
Hans hans ke roj mujhse karti hain dillagi

Chorus twice
Hooo deewana kiya hain teri yaadon ne
Tu aake zara dekh le, aaja
Hoo deewana (deewana)
Kiya hai teri yaadon ne (yaadon ne)
Tu aake zara dekh le (dekh le)
 Aajaaaja
Verse repeat (same chords)
Ek baar tujhko dekha
Phir dekhun yeh dil kahe
Ab mein jaha bhi jaun teri justaju rahe

Chorus for last time
Deewana (deewana)
Kiya hain teri yaadon ne (yaadon ne)
Tu aake zara dekh le (dekh le)
Aaja (aaja ae ae ae ae ae)
Deewana (deewana)
Kiya hain teri yaadon ne (yaadon ne)
Tu aake zara dekh le (dekh le)
 Aajaaaja

A Am C D D# Em F G
variations - click chord images
Transpose chords:
Tuning:
Cool service:
View: Size:
A  A  A
Rating:
Layout:
  • Currently 3.3/5 Stars.
  • 1
  • 2
  • 3
  • 4
  • 5
 
Accuracy:
  • Currently 3.3/5 Stars.
  • 1
  • 2
  • 3
  • 4
  • 5
 
click stars to rate
Chordie recommends:
Learn how to play guitar at JamPlay.com
Songbook:
Login to add this song to your songbook
Support the artist
Preview/buy this song
MSN Music
Why this non-profit ad?

 
login to add comments/video/corrections