Guitar Tabs, Chords and Lyrics


Kaun Hai Woh Ladki  Sonu Nigam

Ru ru ru   [G]ru   ru [D]ru   [C]ru ru
Ru ru ru   [G]ru   ru [D]ru   [Am]ru ru  r[G]u ru


Verse
K[G]aun hai woh [Am]ladki
R[C]ehti hai w[D]oh ka[G]haan
[G]Aankhon se l[Am]ikhi jisne
[C]Is dil pe [D]dasta[G]an
C[Am]hupke se pass a[D]aye
D[Am]heere se m[C]uskur[D]aaye
N[Am]azron ko jab mi[D]laaye
p[C]aagal ho [D]jaata hoon[G] main  ho oo oo oo


[G]Kaun hai woh[Am] ladki
R[C]ehti hai w[D]oh ka[G]haan
[G]Aankhon se l[Am]ikhi jisne
[C]Is dil pe [D]dasta[G]an
Solo

e|-------------------------------------------------------------|
B|-------------------------------------------------------------|
G|------------------------------2-4-2--------------------------|
D|---4/5--0-4/5--0-4/5v-----5-5-------5-4-2----0h2----0h2------|
A|-------------------------------------------2-----2-----------|
E|-------------------------------------------------------------|
e|--------------------------------------------------3------5------3---------------3-----|
B|----------------------------------------------------3------3------3---3h5p3-------3---|
G|-----------------------------0----------------------------------------------4---------|
D|--2-2--4-5--4-2-0----------2---4v----4h5p4---4-5-------5------5-----5---------5-----5-|
A|-------------------3-----3-----------------7------------------------------------------|
E|--------------------------------------------------------------------------------------|


Chords for solo are G Em C D E

Then G Em C D G G G

Stanza 1

Meh[Am]ki hui bahaa[G]ron si woh
Cha[Am]mki hui sitaaro[G]n si woh

Ru ru ru…….

Ho oo oo[Am] Mehki hui [G]bahaaron si woh
Ch[Am]amki hui si[G]taaron si woh
[Am]Ladki hai ya par[F]i koi
U[Am]ljha main in [C]sawaalon[Em] mein
K[Am]yun chedti hai c[F]hupke se
a[C]ake meri k[D]hayaalon[G] mein

Kaun hai woh ladki
Rehti hai who kahaan
Aankhon se likhi jisne
Is dil pe dastaan


Trumpet? G C D
          [G]                           
Ru ru ru again

Stanza 2

Us[G]ki adaayein tho kaatil si [Em]hain uski b[Am]aat kya
C[F]haaron peher tadapta [C]hoon din ra[G]at kya

Ho oo oo [G]Uski adaayein tho kaatil si [Em]hain uski b[Am]aat kya
C[F]haaron peher tadapta [C]hoon din ra[G]at kya  ho oo oo
Ja[Am]b saamne woh [F]aati hai
Dha[Am]dkan meri[C] churati[Em] hai
B[Am]ijli si woh girati [F]hai
Ja[C]ado chalaake [D]jaati h[G]ai
Verse again (same chords)

Ru ru ru till the end

Important: The song above is NOT stored on the Chordie server. The original song is hosted at www.guitaretab.com. Chordie works as a search engine and provides on-the-fly formatting. Chordie does not index songs against artists'/composers' will. To remove this song please click here.

Text color:
Chord color:
Chord grids: 
Font size:    
Page size: 

Am C D Em F G
variations - click chord images

Login - add to songbook

Transpose chords

Tuning

Rating click stars to rate

Layout
Accuracy

SHARE PAGE  




You need to log in to post comments