Guitar Tabs, Chords and Lyrics


Aa Pukaare Tujhe Yeh Dil Mera  Sonu Nigam

Da pa da pa dai ra [Fm]pa pa da pa pa [Eb]da pa pa   [Db(C#]

Da pa da pa dai ra [Fm]pa pa da pa pa [Eb]da pa pa   [Db]

Verse
Hmm dekha hai j[Fm]is din se Mer[Bbm]i jaan tuj[Fm]he         [Bbm]

Hmm dekha hai j[Fm]is din se Mer[Bbm]i jaan tuj[Fm]he         [Bbm]

Us[Fm] din se nahin[Cm] kuch h[Db]osh mujhe   [Cm]
Chorus
A[Db]a pukaare tujhe [Eb]yeh dil mera aaaaa [Fm]

Aa[Db] ke jeena hua mu[Eb]shkil mera         [Fm]

Repeat above two

Guitar solo (Electric) with dapa dapa ……(not worked on it; please contact us if you want it)

Stanza 1
Phirta hoon main yaha[Ab]n wahan Yaadein t[Eb]eri liye huwe       [Fm]     [Eb]      [Ab]

Pagal hai dil ma[Ab]ane nahin Baitha [Eb]hai zidd kiye huwe     [Fm]     [Eb]      [Ab]

Haa[Cm]l ab sunaoo main t[Db]ujhe kahaan[Cm] se laon main      [Db]
Mi[Bbm]lta nehin ter pat[Db]a
Chorus again
Verse
Guitar solo 2(Acoustic)

e|-----------------------------------------------------------|
B|-------8—7p8------7/8------------8-9p8------7/8-h9p8-------|
G|--8/10-------10p8-----10v-----10-------10p8----------10v---|
D|-----------------------------------------------------------|
A|-----------------------------------------------------------|
E|-----------------------------------------------------------|
e|-----------------------------------------------------------|
B|-----8-9p8-9-11-11/13v-----14p13----------14-13v-----------|
G|--10-----------------------------15p13-15------------------|
D|-----------------------------------------------------------|
A|-----------------------------------------------------------|
E|-----------------------------------------------------------|

Saxophone solo Db Eb Ab
                               [Db]     [Eb] [Fm] 
Stanza 2(same chords)

Sapne mein kal aayi thio tu Tujhko gale laga liya
Dekha tujhe jee bhar sanam sanson mein phir basaa liya
Aankh jab khuli meri sirf yaad ti teri
Uske sivaa kuch bhi na tha

Chorus
Verse again
Chorus

Guitar solo 3 (acoustic)

e|---------------------------------|
B|-------8-9p8------7/8-h9p8-------|
G|----10-------10p8----------10v---|play twice
D|---------------------------------|
A|---------------------------------|
E|---------------------------------|


Ends on Fm

Please rate

Important: The song above is NOT stored on the Chordie server. The original song is hosted at www.guitaretab.com. Chordie works as a search engine and provides on-the-fly formatting. Chordie does not index songs against artists'/composers' will. To remove this song please click here.

Text color:
Chord color:
Chord grids: 
Font size:    
Page size: 

Ab Bbm Cm Db Eb Fm
variations - click chord images

Login - add to songbook

Transpose chords

Tuning

Rating click stars to rate

Layout
Accuracy

SHARE PAGE  




You need to log in to post comments