Guitar Tabs, Chords and Lyrics


Kal Ho Naa Ho   Sonu Nigam



Intro:
E|------------------0-------------------|
B|-1---0-1-0-1-0-1----3-1-0----0----0---|
G|---------------------------2----2-----|
D|--------------------------------------|
A|--------------------------------------|
E|--------------------------------------| x 2

Interlude:
					 Strum C
E|--------------------------|----------------------------|
B|-----1--------------------|------1---------------------|
G|-0-2---2----------0-2-0---|--0-2---2--------3-2-0------|
D|----------------4---------|---------------4------------|
A|--------------------------|----------------------------|
E|--------------------------|----------------------------|

Verse:
E|------------------------------|---------------------------------|
B|-0---0-1-3--------------------|----0---0-1-3--------------------|
G|------------0-0-0---------0---|----------------0-0-0--------2 --|
D|--------------------3-2-3-----|-----------------------3-2-3-----|
A|------------------------------|---------------------------------|
E|------------------------------|---------------------------------|

E|-----1-0h1-------------------|   1-3—0h1~ -----------------------|
B|-0-1----------3—3p0-----0-3--|   --------------0---0-1-----------|
G|-----------------------------|   ----------------2---------0h2p0-|
D|-----------------------------|   --------------------------------|
A|-----------------------------|   --------------------------------|
E|-----------------------------|x2 --------------------------------|



Important: The song above is NOT stored on the Chordie server. The original song is hosted at www.guitaretab.com. Chordie works as a search engine and provides on-the-fly formatting. Chordie does not index songs against artists'/composers' will. To remove this song please click here.

This song is displayed as text-only. Transposing and tuning is only available for chordpro-songs.

Login - add to songbook

Rating click stars to rate

Layout
Accuracy

SHARE PAGE  




You need to log in to post comments