Chordie logo

I Awake   Soundgarden



Tuning: drop d
yea as long as your a moderately good guitar player this song is pretty easy.

e|--------------------------------------------------------------------------|
B|--------------------------------------------------------------------------|
G|--------------------------------------------------------------------------|
D|-2-2-2-2-1--1-----0-0-----------------------------------------------------|
A|-2-2-2-2-1--1-----0-0-----------------------------------------------------|
E|-2-2-2-2-1--1--0----------------------------------------------------------|
this is the part after the trippy creepy intro, for the intro just do whatever you want, 
i just pluck the strings up by the headstock, where there really tightly wound.

(verse)
e|--------------------------------------------------------------------------|
B|--------------------------------------------------------------------------|
G|--------------------------------------------------------------------------|
D|--3-4-4-4-4--3-4-4-4-4--3-4-4-4-4---3--4--5-5-----------------------------|
A|--3-4-4-4-4--3-4-4-4-4--3-4-4-4-4---3--4--5-5-----------------------------|
E|--3-4-4-4-4--3-4-4-4-4--3-4-4-4-4---3--4--5-5-----------------------------|(PALM 
up depressed, i left for work)

e|--------------------------------------------------------------------------|
B|--------------------------------------------------------------------------|
G|--------------------------------------------------------------------------|
D|------------------------------5-5-------------3-4-5-5-5-------------------|
A|------------------------------5-5-------------3-4-5-5-5-------------------|
E|-3-4-3-4-5b---3-4-3-4-5b--3-4-5-5--3-4-3-4-5b-3-4-5-5-5-------------------|
(you have a good day,good day) the part below is when he screams (i love you)
e|--------------------------------------------------------------------------|
B|--------------------------------------------------------------------------|
G|--------------------------------------------------------------------------|
D|--6-5-3--6-5-3--0---------------------------------------------------------|
A|--6-5-3--6-5-3--0---------------------------------------------------------|
E|--6-5-3--6-5-3--0--0--2-2-------------------------------------------------|



Important: The song above is NOT stored on the Chordie server. The original song is hosted at www.guitaretab.com. Chordie works as a search engine and provides on-the-fly formatting. Chordie does not index songs against artists/composers will. To remove this song please click here.

This song is displayed as text-only. Transposing and tuning is only available for chordpro-songs.

Login - add to songbook

Rating click stars to rate

Layout
Accuracy

SHARE PAGE  

You need to log in to post comments