Guitar Tabs, Chords and Lyrics


Karaoke   Soundgarden














Date: Fri, 13 Dec 1996 20:42:11 -0500



        Posted by Dave Nailling.  (Fett81@aol.com)

          Karaoke
                 By Soundgarden from Burden In my Hand single.

          Standard tuining (EADGBe)

          Notation:
                         /=Slide up
                         \=Slide down
                         b=bend to pitch of fret indicated
                         r=return bend to pitch of fret indicated

          Intro Part (x2)

e--------------------------------------------------------|
B--------------------------------------------------------|
G--9999999999999-7-6666666666666-5-444444444444444-------|
D--9999999999999-7-6666666666666-5-444444444444444-------|
A--------------------------------------------------------|
E--------------------------------------------------------|

e--------------------|I
B--4444444444/10-----|I
G--4444444444/10-----|I
D--------------------|I
A--------------------|I
E--------------------|I

          Verse Part (x12)

e--------------------------------------|I
B--------------------------------------|I
G---------------0----------------------|I
D---------------0--4--x--3-b-4-r-3-----|I
A--0--2--3--4-----4--x--3-b-4-r-3--4---|I
E--0--2--3--4-----------------------4--|I

          Pre Chorus Part (x4)

e-----------------------------------|I
B-----------------------------------|I
G---------------6-------------------|I
D--4--4--3--3--6--------------------|I
A--4--4--3--3--4----3--4--3---------|I
E--2--2--1--1-----------------5--4--|I

          Verse Part (x4)

          Pre Chorus Part (x4)

          Chorus Part (x3)

e------------------------------------------------------|
B------------------------------------------------------|
G--4-4-4-4-4-4-4-4-4-4-4-4-4-4-4-4-3-3-3-3-3-3-3-3-----|
D--4-4-4-4-4-4-4-4-4-4-4-4-4-4-4-4-3-3-3-3-3-3-3-3-----|
A--2-2-2-2-2-2-2-2-0-0-0-0-0-0-0-0-1-1-1-1-1-1-1-1-----|
E------------------------------------------------------|

e------------------------------------------------------|I
B------------------------------------------------------|I
G------------------------------------------------------|I
D-4-4-4-4-4-4-4-4-5-5-5-5-5-5-5-5-5-5-5-5-5-5-5-5------|I
A-4-4-4-4-4-4-4-4-5-5-5-5-5-5-5-5-5-5-5-5-5-5-5-5------|I
E-2-2-2-2-2-2-2-2-3-3-3-3-3-3-3-3-3-3-3-3-3-3-3-3------|I

          Chorus Fill (during G chord)

e----------|I
B--0-2-0---|I
G--0-2-0---|I
D----------|I
A----------|I
E----------|I

          Post Chorus Part (x1)

e-----------------------------------------|I
B-----------------------------------------|I
G-----------------------------------------|I
D--5-/-9-9-9-9-9-9-9-9-9-9-9-9-9-9-9-9----|I
A--5-/-9-9-9-9-9-9-9-9-9-9-9-9-9-9-9-9----|I
E--3-/-7-7-7-7-7-7-7-7-7-7-7-7-7-7-7-7----|I

          Post Chorus Fill (during B chord)

e--------------------------------------|I
B--0-2-3-3-3-3-3-3-3-3-3-3-3-3-3-3-----|I
G--0-2-3-3-3-3-3-3-3-3-3-3-3-3-3-3-----|I
D--------------------------------------|I
A--------------------------------------|I
E--------------------------------------|I

          Verse Part (x4)

          Pre Chorus Part (x4)

          Chorus Part (x3)

          Post Chorus Part (x1)

          Verse Part (x4)

          Bridge Part (x8)

e---------------------------|I
B--------------0------------|I
G---------------------------|I
D--------5--------5-----5---|I
A-----0-----0--------0------|I
E--4------------------------|I

          Chorus Part (x5)

          Intro Part (x3)

          Notes:

                  Kim and Chris probably hit all of the open strings after
the intro and outro.  It's no big deal, though.  Do it if you want to.  Also,
the bridge is probably wrong, but it sounds fine.  If you have any questions


Important: The song above is NOT stored on the Chordie server. The original song is hosted at www.guitaretab.com. Chordie works as a search engine and provides on-the-fly formatting. Chordie does not index songs against artists'/composers' will. To remove this song please click here.

This song is displayed as text-only. Transposing and tuning is only available for chordpro-songs.

Login - add to songbook

Rating click stars to rate

Layout
Accuracy

SHARE PAGE  




You need to log in to post comments