Chordie logo

At Least I Got Laid   Spacehog



------------------------|
--------2-2h3p2---------|
------2---------4--2----|   Play 12 Times
----2----------------2--|
--0---------------------|
------------------------|

Oh what a crazy.....

------0-0--3-3---------------|
-2-2--1-1--3-3----2----------|     Play 5 times
-2-2--0-0--0-0----2----------|
-2-2--2-2--0-0----2----------|
-0-0--3-3--2-2----0----------|
-----------3-3---------------|

Now go ahead....
--------------------------------|
----------------------------2---|
1-1-1-1---------------------2---|
2-2-2-2--------0--0-1-2--4--2---|
2-2-2-2--2--4---------------0---|
--------------------------------|



Important: The song above is NOT stored on the Chordie server. The original song is hosted at www.guitaretab.com. Chordie works as a search engine and provides on-the-fly formatting. Chordie does not index songs against artists/composers will. To remove this song please click here.

This song is displayed as text-only. Transposing and tuning is only available for chordpro-songs.

Login - add to songbook

Rating click stars to rate

Layout
Accuracy

SHARE PAGE  

You need to log in to post comments