Air

Sparta


Air -by- Sparta
Intro(verse) - Clean Guitar 1 (Jim)
1--------------------------------------------------| 2--------------------------------------------------| 3--------------------------------------------------| 4-----0-0------0-0---------0-0-----0-0-------------| (x6) 5---0-0-------0-0---------0-0-----0-0--------------| 6-7-7--------9-9---------2-2-----3-3---------------|
Intro(verse) - Optional 2nd Guitar (Paul)(this part actually played by a keyboard)
1----------------------------------------| 2----------------------------------------| 3----------------------------------------| 4-9---11---4---5---4---2---0-------------| (x6) 5----------------------------------------| 6----------------------------------------|
Pre Chorus - 1st Guitar (Jim)
1------------------------------------| 2------------------------------------| 3----------------9-7-----------------| 4-----11-9-11-------7-7-9------------| (x3)*play open strings first time 5---0*-------------------------------| only 6-0*---------------------------------|
1--------------------------------------| 2--------------------------------------| 3--------------------------------------| (x1)-play as last part of riff 4-11-9-11-7----------------------------| 5--------------9-7-9-------------------| 6--------------------------------------|
1---------------------------------| 2---------------------------------| 3-X-X---14------------------------| (x15) 4-X-X---X-------------------------| 5-X-X---12------------------------| 6---------------------------------|
Pre Chorus - 2nd Guitar (Paul)
1-----------------------------| 2-----------------------------| 3-----------------------------| 4------11---------------------| 5-----0--------- (x30-| 6---0-------------------------|
Chorus - Both Guitars Distorted
1-----------------------------------------------------| 2-----------------------------------------------------| 3-----------------------------------------------------| 4---4-5-4-0---0-4-5-4-0---0-4-5-4-7-7-7-7-7-7-7-7-0---| 5---4-5-4-0---0-4-5-4-0---0-4-5-4-7-7-7-7-7-7-7-7-0---| 6---4-5-4-0---0-4-5-4-0---0-4-5-4-7-7-7-7-7-7-7-7-0---| (x2) 1-----------------------------------------------------------| 2-----------------------------------------------------------| 3-----------------------------------------------------------| 4---4-5-4-0---0-4-5-4-0---0-4-5-4-7-7-7-7-7-7-7-7-4-0-4-0---| 5---4-5-4-0---0-4-5-4-0---0-4-5-4-7-7-7-7-7-7-7-7-4-0-4-0---| 6---4-5-4-0---0-4-5-4-0---0-4-5-4-7-7-7-7-7-7-7-7-4-0-4-0---|
Verse 2 -Guitar 1 (Jim) - same as intro and first verse-clean
Guitar 2 (Paul) - slight distortion
1--------------------------------------| 2--------------------------------------| 3----9 11 14 11 ----------| 4----X(x6) X(x8) X(x8) X(x6) ----------| (x6) 5----7 9 12 9 -----------| 6--------------------------------------|
Pre Chorus 2 - Both Guitars
1-X-X-X-X-X-X-X-X-X----| 2-X-X-X-X-X-X-X-X-X----| 3-X-X-X-X-X-X-X-X-X----| 4-X-X-X-X-X-X-X-X-X----| 5-X-X-X-X-X-X-X-X-X----| 6-X-X-X-X-X-X-X-X-X----|
Chorus 2- Same as Chorus 1
Bridge - Both Guitars - Slight Distortion
1---------------------------------------------------| 2---------------------------------------------------| 3-9 11 14 9 14 9 14 9 14 --| 4-X(x3)X(x1)X(x10)X(x2)X(x10)X(x2)X(x10)X(x2)X(x10)- 5-7 9 12 7 12 7 12 7 12 --| 6---------------------------------------------------|
Pre Chorus - Same as 1st pre chorus
Chorus 3 - Same as chorus 1 and 2
End on
1---------| 2---------| 3---------| 4-0-------| 5-0-------| 6-0-------|
















variations - click chord images
Transpose chords:
Tuning:
Cool service:
View: Size:
A  A  A
Rating:
Layout:
  • Currently 0/5 Stars.
  • 1
  • 2
  • 3
  • 4
  • 5
 
Accuracy:
  • Currently 3.1/5 Stars.
  • 1
  • 2
  • 3
  • 4
  • 5
 
click stars to rate
Chordie recommends:
Learn to play songs at Jamplay.com with video guitar lessons
Songbook:
Login to add this song to your songbook
Support the artist
Preview/buy this song
MSN Music
Why this non-profit ad?

 
login to add comments/video/corrections