Guitar Tabs, Chords and Lyrics


Baby One More Time  Britney Spears



    [A#5-C5-C5]                                                                             
e-|-----------|
B-|-----------|
G-|--3--5--5--| (3 times)
D-|--3--5--5--|
A-|--1--3--3--|
E-|-----------| Oh baby baby...

END INTRO (guitar with some wah effect)
e-|--------------|
B-|--------------|
G-|--10p11h10----| (Play just before the third A#5-C5-C5)
D-|-----------13-|
A-|--------------|
E-|--------------|

VERSE
[Cm]Oh baby baby, ...[Gm] [D#]
[D#]     [Fm]                [G]     [A#5-C5-C5]          repeat
PRE-CHORUS
(same as in the verse)
CHORUS (I)
[Cm]                 [Gm]   [D#]                    [Fm]             [G]  [Cm]                              [Gm]   [G]          [D#]   [Fm]VERSE[G]
PRE-CHORUS
CHORUS (I)
BRIDGE
(play the intro-wah-riff)
Oh baby baby...
Oh baby baby...
Ah, yeah yeah...
(piano part adapted for guitar)
e-|---------------------3-----------------------|
B-|------------------------3-----------------3--|
G-|--5----5----5-----5--------------------5-----|
D-|---------------5-----------------------------|
A-|---------------------------------------------|
E-|---------------------------------------------|

Oh baby baby, ...
e-|---------------------3-----------------------|
B-|--4----4----4-------------6----4--3----------|
G-|------------------5------------------5----4--|
D-|---------------5-----------------------------|
A-|---------------------------------------------|
E-|---------------------------------------------|

[Fm]  Oh pretty baby, ..[A#].[G#] [A#]
CHORUS (II)
[A#]               [Cm]                    [Gm] [Gm]               [D#]   [D#]          [Fm]       [G]              [G#]   [G#]                      [A#]   [A#]                [G#]     [G#]    [Gm]   [Fm]CHORUS (I)[G]
CHORUS (I) with CHORUS (II)
END
[Fm]Hit me ....[Cm]
**************************************
* SAVE THE PENGUINS ! *
* www.multimania.com/savethepenguins *
**************************************

Important: The song above is NOT stored on the Chordie server. The original song is hosted at www.guitaretab.com. Chordie works as a search engine and provides on-the-fly formatting. Chordie does not index songs against artists'/composers' will. To remove this song please click here.

Text color:
Chord color:
Chord grids: 
Font size:    
Page size: 

A# Cm D# Fm G G# Gm
variations - click chord images

Login - add to songbook

Transpose chords

Tuning

Rating click stars to rate

Layout
Accuracy

SHARE PAGE  




You need to log in to post comments